999
dxfrw 0.6.3
  0
SECTION
  2
HEADER
  9
$ACADVER
  1
AC1021
  9
$DWGCODEPAGE
  3
ANSI_1252
  9
$INSBASE
 10
0
 20
0
 30
0
  9
$EXTMIN
 10
-171.5786138209029
 20
-130.3109988681266
 30
0
  9
$EXTMAX
 10
84.42138617909714
 20
49.68899858435191
 30
0
  9
$LIMMIN
 10
0
 20
0
  9
$LIMMAX
 10
420
 20
297
  9
$ORTHOMODE
 70
    0
  9
$REGENMODE
 70
    1
  9
$FILLMODE
 70
    1
  9
$QTEXTMODE
 70
    0
  9
$MIRRTEXT
 70
    0
  9
$LTSCALE
 40
1
  9
$ATTMODE
 70
    0
  9
$TEXTSIZE
 40
2.5
  9
$TRACEWID
 40
15.68
  9
$TEXTSTYLE
  7
STANDARD
  9
$CLAYER
  8
0
  9
$CELTYPE
  6
BYLAYER
  9
$CECOLOR
 62
  256
  9
$CELTSCALE
 40
1
  9
$DISPSILH
 70
    0
  9
$DIMSCALE
 40
2.5
  9
$DIMASZ
 40
0.0025
  9
$DIMEXO
 40
0.000625
  9
$DIMDLI
 40
3.75
  9
$DIMRND
 40
0
  9
$DIMDLE
 40
0
  9
$DIMEXE
 40
0.00125
  9
$DIMTP
 40
0
  9
$DIMTM
 40
0
  9
$DIMTXT
 40
0.0025
  9
$DIMCEN
 40
2.5
  9
$DIMTSZ
 40
0
  9
$DIMTOL
 70
    0
  9
$DIMLIM
 70
    0
  9
$DIMTIH
 70
    0
  9
$DIMTOH
 70
    0
  9
$DIMSE1
 70
    0
  9
$DIMSE2
 70
    0
  9
$DIMTAD
 70
    1
  9
$DIMZIN
 70
    8
  9
$DIMBLK
  1

  9
$DIMASO
 70
    1
  9
$DIMSHO
 70
    1
  9
$DIMPOST
  1

  9
$DIMAPOST
  1

  9
$DIMALT
 70
    0
  9
$DIMALTD
 70
    3
  9
$DIMALTF
 40
0.03937
  9
$DIMLFAC
 40
1
  9
$DIMTOFL
 70
    1
  9
$DIMTVP
 40
0
  9
$DIMTIX
 70
    0
  9
$DIMSOXD
 70
    0
  9
$DIMSAH
 70
    0
  9
$DIMBLK1
  1

  9
$DIMBLK2
  1

  9
$DIMSTYLE
  2
STANDARD
  9
$DIMCLRD
 70
    0
  9
$DIMCLRE
 70
    0
  9
$DIMCLRT
 70
    0
  9
$DIMTFAC
 40
1
  9
$DIMGAP
 40
0.000625
  9
$DIMJUST
 70
    0
  9
$DIMSD1
 70
    0
  9
$DIMSD2
 70
    0
  9
$DIMTOLJ
 70
    0
  9
$DIMTZIN
 70
    8
  9
$DIMALTZ
 70
    0
  9
$DIMALTTZ
 70
    0
  9
$DIMUPT
 70
    0
  9
$DIMDEC
 70
    2
  9
$DIMTDEC
 70
    2
  9
$DIMALTU
 70
    2
  9
$DIMALTTD
 70
    3
  9
$DIMTXSTY
  7
STANDARD
  9
$DIMAUNIT
 70
    0
  9
$DIMADEC
 70
    0
  9
$DIMALTRND
 40
0
  9
$DIMAZIN
 70
    0
  9
$DIMDSEP
 70
   44
  9
$DIMATFIT
 70
    3
  9
$DIMFRAC
 70
    0
  9
$DIMLDRBLK
  1
STANDARD
  9
$DIMLUNIT
 70
    2
  9
$DIMLWD
 70
   -2
  9
$DIMLWE
 70
   -2
  9
$DIMTMOVE
 70
    0
  9
$DIMFXL
 40
1
  9
$DIMFXLON
 70
    0
  9
$DIMJOGANG
 40
0.7854
  9
$DIMTFILL
 70
    0
  9
$DIMTFILLCLR
 70
    0
  9
$DIMARCSYM
 70
    0
  9
$DIMLTYPE
  6

  9
$DIMLTEX1
  6

  9
$DIMLTEX2
  6

  9
$LUNITS
 70
    2
  9
$LUPREC
 70
    4
  9
$SKETCHINC
 40
1
  9
$FILLETRAD
 40
0
  9
$AUNITS
 70
    0
  9
$AUPREC
 70
    2
  9
$MENU
  1
.
  9
$ELEVATION
 40
0
  9
$PELEVATION
 40
0
  9
$THICKNESS
 40
0
  9
$LIMCHECK
 70
    0
  9
$CHAMFERA
 40
0
  9
$CHAMFERB
 40
0
  9
$CHAMFERC
 40
0
  9
$CHAMFERD
 40
0
  9
$SKPOLY
 70
    0
  9
$USRTIMER
 70
    1
  9
$ANGBASE
 50
0
  9
$ANGDIR
 70
    0
  9
$PDMODE
 70
   34
  9
$PDSIZE
 40
0
  9
$PLINEWID
 40
0
  9
$SPLFRAME
 70
    0
  9
$SPLINETYPE
 70
    2
  9
$SPLINESEGS
 70
    8
  9
$HANDSEED
  5
20000
  9
$SURFTAB1
 70
    6
  9
$SURFTAB2
 70
    6
  9
$SURFTYPE
 70
    6
  9
$SURFU
 70
    6
  9
$SURFV
 70
    6
  9
$UCSBASE
  2

  9
$UCSNAME
  2

  9
$UCSORG
 10
0
 20
0
 30
0
  9
$UCSXDIR
 10
1
 20
0
 30
0
  9
$UCSYDIR
 10
0
 20
1
 30
0
  9
$UCSORTHOREF
  2

  9
$UCSORTHOVIEW
 70
    0
  9
$UCSORGTOP
 10
0
 20
0
 30
0
  9
$UCSORGBOTTOM
 10
0
 20
0
 30
0
  9
$UCSORGLEFT
 10
0
 20
0
 30
0
  9
$UCSORGRIGHT
 10
0
 20
0
 30
0
  9
$UCSORGFRONT
 10
0
 20
0
 30
0
  9
$UCSORGBACK
 10
0
 20
0
 30
0
  9
$PUCSBASE
  2

  9
$PUCSNAME
  2

  9
$PUCSORG
 10
0
 20
0
 30
0
  9
$PUCSXDIR
 10
1
 20
0
 30
0
  9
$PUCSYDIR
 10
0
 20
1
 30
0
  9
$PUCSORTHOREF
  2

  9
$PUCSORTHOVIEW
 70
    0
  9
$PUCSORGTOP
 10
0
 20
0
 30
0
  9
$PUCSORGBOTTOM
 10
0
 20
0
 30
0
  9
$PUCSORGLEFT
 10
0
 20
0
 30
0
  9
$PUCSORGRIGHT
 10
0
 20
0
 30
0
  9
$PUCSORGFRONT
 10
0
 20
0
 30
0
  9
$PUCSORGBACK
 10
0
 20
0
 30
0
  9
$USERI1
 70
    0
  9
$USERI2
 70
    0
  9
$USERI3
 70
    0
  9
$USERI4
 70
    0
  9
$USERI5
 70
    0
  9
$USERR1
 40
0
  9
$USERR2
 40
0
  9
$USERR3
 40
0
  9
$USERR4
 40
0
  9
$USERR5
 40
0
  9
$WORLDVIEW
 70
    1
  9
$SHADEDGE
 70
    3
  9
$SHADEDIF
 70
   70
  9
$TILEMODE
 70
    1
  9
$MAXACTVP
 70
   64
  9
$PINSBASE
 10
0
 20
0
 30
0
  9
$PLIMCHECK
 70
    0
  9
$PEXTMIN
 10
0
 20
0
 30
0
  9
$PEXTMAX
 10
0
 20
0
 30
0
  9
$GRIDMODE
 70
    1
  9
$SNAPSTYLE
 70
    0
  9
$PLIMMIN
 10
0
 20
0
  9
$PLIMMAX
 10
0.00021
 20
0.000297
  9
$UNITMODE
 70
    0
  9
$VISRETAIN
 70
    1
  9
$PLINEGEN
 70
    0
  9
$PSLTSCALE
 70
    1
  9
$TREEDEPTH
 70
 3020
  9
$CMLSTYLE
  2
Standard
  9
$CMLJUST
 70
    0
  9
$CMLSCALE
 40
20
  9
$PROXYGRAPHICS
 70
    1
  9
$MEASUREMENT
 70
    1
  9
$CELWEIGHT
370
   -1
  9
$ENDCAPS
280
    0
  9
$JOINSTYLE
280
    0
  9
$LWDISPLAY
290
    0
  9
$INSUNITS
 70
    6
  9
$HYPERLINKBASE
  1

  9
$STYLESHEET
  1

  9
$XEDIT
290
    1
  9
$CEPSNTYPE
380
    0
  9
$PSTYLEMODE
290
    1
  9
$EXTNAMES
290
    1
  9
$PSVPSCALE
 40
1
  9
$OLESTARTUP
290
    0
  9
$SORTENTS
280
  127
  9
$INDEXCTL
280
    0
  9
$HIDETEXT
280
    1
  9
$XCLIPFRAME
290
    0
  9
$HALOGAP
280
    0
  9
$OBSCOLOR
 70
  257
  9
$OBSLTYPE
280
    0
  9
$INTERSECTIONDISPLAY
280
    0
  9
$INTERSECTIONCOLOR
 70
  257
  9
$DIMASSOC
280
    1
  9
$PROJECTNAME
  1

  9
$CAMERADISPLAY
290
    0
  9
$LENSLENGTH
 40
50
  9
$CAMERAHEIGHT
 40
0
  9
$STEPSPERSEC
 40
2
  9
$STEPSIZE
 40
50
  9
$3DDWFPREC
 40
2
  9
$PSOLWIDTH
 40
5
  9
$PSOLHEIGHT
 40
80
  9
$LOFTANG1
 40
1.570796326794897
  9
$LOFTANG2
 40
1.570796326794897
  9
$LOFTMAG1
 40
0
  9
$LOFTMAG2
 40
0
  9
$LOFTPARAM
 70
    7
  9
$LOFTNORMALS
280
    1
  9
$LATITUDE
 40
1
  9
$LONGITUDE
 40
1
  9
$NORTHDIRECTION
 40
0
  9
$TIMEZONE
 70
-8000
  9
$LIGHTGLYPHDISPLAY
280
    1
  9
$TILEMODELIGHTSYNCH
280
    1
  9
$SOLIDHIST
280
    1
  9
$SHOWHIST
280
    1
  9
$DWFFRAME
280
    2
  9
$DGNFRAME
280
    0
  9
$REALWORLDSCALE
290
    1
  9
$INTERFERECOLOR
 62
    1
  9
$CSHADOW
280
    0
  9
$SHADOWPLANELOCATION
 40
0
  0
ENDSEC
  0
SECTION
  2
CLASSES
  0
ENDSEC
  0
SECTION
  2
TABLES
  0
TABLE
  2
VPORT
  5
8
330
0
100
AcDbSymbolTable
 70
    1
  0
VPORT
  5
31
330
2
100
AcDbSymbolTableRecord
100
AcDbViewportTableRecord
  2
*ACTIVE
 70
    0
 10
0
 20
0
 11
1
 21
1
 12
56.89903765625222
 22
25.96153809410747
 13
0
 23
0
 14
10
 24
10
 15
10
 25
10
 16
0
 26
0
 36
1
 17
0
 27
0
 37
0
 40
184.3269204681631
 41
1.705399061032864
 42
50
 43
0
 44
0
 50
0
 51
0
 71
    0
 72
  100
 73
    1
 74
    3
 75
    0
 76
    1
 77
    0
 78
    0
281
    0
 65
    1
110
0
120
0
130
0
111
1
121
0
131
0
112
0
122
1
132
0
 79
    0
146
0
348
10020
 60
    7
 61
    5
292
1
282
    1
141
0
142
0
 63
  250
421
3358443
  0
ENDTAB
  0
TABLE
  2
LTYPE
  5
5
330
0
100
AcDbSymbolTable
 70
    4
  0
LTYPE
  5
14
330
5
100
AcDbSymbolTableRecord
100
AcDbLinetypeTableRecord
  2
ByBlock
 70
    0
  3

 72
   65
 73
    0
 40
0
  0
LTYPE
  5
15
330
5
100
AcDbSymbolTableRecord
100
AcDbLinetypeTableRecord
  2
ByLayer
 70
    0
  3

 72
   65
 73
    0
 40
0
  0
LTYPE
  5
16
330
5
100
AcDbSymbolTableRecord
100
AcDbLinetypeTableRecord
  2
Continuous
 70
    0
  3
Solid line
 72
   65
 73
    0
 40
0
  0
LTYPE
  5
32
330
5
100
AcDbSymbolTableRecord
100
AcDbLinetypeTableRecord
  2
DOT
 70
    0
  3
Dot . . . . . . . . . . . . . . . . . . . . . .
 72
   65
 73
    2
 40
6.35
 49
0
 74
    0
 49
-6.35
 74
    0
  0
LTYPE
  5
33
330
5
100
AcDbSymbolTableRecord
100
AcDbLinetypeTableRecord
  2
DOTTINY
 70
    0
  3
Dot (.15x) .....................................
 72
   65
 73
    2
 40
0.9525
 49
0
 74
    0
 49
-0.9525
 74
    0
  0
LTYPE
  5
34
330
5
100
AcDbSymbolTableRecord
100
AcDbLinetypeTableRecord
  2
DOT2
 70
    0
  3
Dot (.5x) .....................................
 72
   65
 73
    2
 40
3.175
 49
0
 74
    0
 49
-3.175
 74
    0
  0
LTYPE
  5
35
330
5
100
AcDbSymbolTableRecord
100
AcDbLinetypeTableRecord
  2
DOTX2
 70
    0
  3
Dot (2x) .  .  .  .  .  .  .  .  .  .  .  .  .
 72
   65
 73
    2
 40
12.7
 49
0
 74
    0
 49
-12.7
 74
    0
  0
LTYPE
  5
36
330
5
100
AcDbSymbolTableRecord
100
AcDbLinetypeTableRecord
  2
DASHED
 70
    0
  3
Dashed _ _ _ _ _ _ _ _ _ _ _ _ _ _ _ _ _
 72
   65
 73
    2
 40
19.05
 49
12.7
 74
    0
 49
-6.35
 74
    0
  0
LTYPE
  5
37
330
5
100
AcDbSymbolTableRecord
100
AcDbLinetypeTableRecord
  2
DASHEDTINY
 70
    0
  3
Dashed (.15x) _ _ _ _ _ _ _ _ _ _ _ _ _ _ _ _ _
 72
   65
 73
    2
 40
2.8575
 49
1.905
 74
    0
 49
-0.9525
 74
    0
  0
LTYPE
  5
38
330
5
100
AcDbSymbolTableRecord
100
AcDbLinetypeTableRecord
  2
DASHED2
 70
    0
  3
Dashed (.5x) _ _ _ _ _ _ _ _ _ _ _ _ _ _ _ _ _
 72
   65
 73
    2
 40
9.524999999999999
 49
6.35
 74
    0
 49
-3.175
 74
    0
  0
LTYPE
  5
39
330
5
100
AcDbSymbolTableRecord
100
AcDbLinetypeTableRecord
  2
DASHEDX2
 70
    0
  3
Dashed (2x) ____  ____  ____  ____  ____  ___
 72
   65
 73
    2
 40
38.09999999999999
 49
25.4
 74
    0
 49
-12.7
 74
    0
  0
LTYPE
  5
3A
330
5
100
AcDbSymbolTableRecord
100
AcDbLinetypeTableRecord
  2
DASHDOT
 70
    0
  3
Dash dot __ . __ . __ . __ . __ . __ . __ . __
 72
   65
 73
    4
 40
25.4
 49
12.7
 74
    0
 49
-6.35
 74
    0
 49
0
 74
    0
 49
-6.35
 74
    0
  0
LTYPE
  5
3B
330
5
100
AcDbSymbolTableRecord
100
AcDbLinetypeTableRecord
  2
DASHDOTTINY
 70
    0
  3
Dash dot (.15x) _._._._._._._._._._._._._._._.
 72
   65
 73
    4
 40
3.81
 49
1.905
 74
    0
 49
-0.9525
 74
    0
 49
0
 74
    0
 49
-0.9525
 74
    0
  0
LTYPE
  5
3C
330
5
100
AcDbSymbolTableRecord
100
AcDbLinetypeTableRecord
  2
DASHDOT2
 70
    0
  3
Dash dot (.5x) _._._._._._._._._._._._._._._.
 72
   65
 73
    4
 40
12.7
 49
6.35
 74
    0
 49
-3.175
 74
    0
 49
0
 74
    0
 49
-3.175
 74
    0
  0
LTYPE
  5
3D
330
5
100
AcDbSymbolTableRecord
100
AcDbLinetypeTableRecord
  2
DASHDOTX2
 70
    0
  3
Dash dot (2x) ____  .  ____  .  ____  .  ___
 72
   65
 73
    4
 40
50.8
 49
25.4
 74
    0
 49
-12.7
 74
    0
 49
0
 74
    0
 49
-12.7
 74
    0
  0
LTYPE
  5
3E
330
5
100
AcDbSymbolTableRecord
100
AcDbLinetypeTableRecord
  2
DIVIDE
 70
    0
  3
Divide ____ . . ____ . . ____ . . ____ . . ____
 72
   65
 73
    6
 40
31.75
 49
12.7
 74
    0
 49
-6.35
 74
    0
 49
0
 74
    0
 49
-6.35
 74
    0
 49
0
 74
    0
 49
-6.35
 74
    0
  0
LTYPE
  5
3F
330
5
100
AcDbSymbolTableRecord
100
AcDbLinetypeTableRecord
  2
DIVIDETINY
 70
    0
  3
Divide (.15x) __..__..__..__..__..__..__..__.._
 72
   65
 73
    6
 40
4.7625
 49
1.905
 74
    0
 49
-0.9525
 74
    0
 49
0
 74
    0
 49
-0.9525
 74
    0
 49
0
 74
    0
 49
-0.9525
 74
    0
  0
LTYPE
  5
40
330
5
100
AcDbSymbolTableRecord
100
AcDbLinetypeTableRecord
  2
DIVIDE2
 70
    0
  3
Divide (.5x) __..__..__..__..__..__..__..__.._
 72
   65
 73
    6
 40
15.875
 49
6.35
 74
    0
 49
-3.175
 74
    0
 49
0
 74
    0
 49
-3.175
 74
    0
 49
0
 74
    0
 49
-3.175
 74
    0
  0
LTYPE
  5
41
330
5
100
AcDbSymbolTableRecord
100
AcDbLinetypeTableRecord
  2
DIVIDEX2
 70
    0
  3
Divide (2x) ________  .  .  ________  .  .  _
 72
   65
 73
    6
 40
63.5
 49
25.4
 74
    0
 49
-12.7
 74
    0
 49
0
 74
    0
 49
-12.7
 74
    0
 49
0
 74
    0
 49
-12.7
 74
    0
  0
LTYPE
  5
42
330
5
100
AcDbSymbolTableRecord
100
AcDbLinetypeTableRecord
  2
BORDER
 70
    0
  3
Border __ __ . __ __ . __ __ . __ __ . __ __ .
 72
   65
 73
    6
 40
44.45
 49
12.7
 74
    0
 49
-6.35
 74
    0
 49
12.7
 74
    0
 49
-6.35
 74
    0
 49
0
 74
    0
 49
-6.35
 74
    0
  0
LTYPE
  5
43
330
5
100
AcDbSymbolTableRecord
100
AcDbLinetypeTableRecord
  2
BORDERTINY
 70
    0
  3
Border (.15x) __.__.__.__.__.__.__.__.__.__.__.
 72
   65
 73
    6
 40
6.6675
 49
1.905
 74
    0
 49
-0.9525
 74
    0
 49
1.905
 74
    0
 49
-0.9525
 74
    0
 49
0
 74
    0
 49
-0.9525
 74
    0
  0
LTYPE
  5
44
330
5
100
AcDbSymbolTableRecord
100
AcDbLinetypeTableRecord
  2
BORDER2
 70
    0
  3
Border (.5x) __.__.__.__.__.__.__.__.__.__.__.
 72
   65
 73
    6
 40
22.225
 49
6.35
 74
    0
 49
-3.175
 74
    0
 49
6.35
 74
    0
 49
-3.175
 74
    0
 49
0
 74
    0
 49
-3.175
 74
    0
  0
LTYPE
  5
45
330
5
100
AcDbSymbolTableRecord
100
AcDbLinetypeTableRecord
  2
BORDERX2
 70
    0
  3
Border (2x) ____  ____  .  ____  ____  .  ___
 72
   65
 73
    6
 40
88.89999999999999
 49
25.4
 74
    0
 49
-12.7
 74
    0
 49
25.4
 74
    0
 49
-12.7
 74
    0
 49
0
 74
    0
 49
-12.7
 74
    0
  0
LTYPE
  5
46
330
5
100
AcDbSymbolTableRecord
100
AcDbLinetypeTableRecord
  2
CENTER
 70
    0
  3
Center ____ _ ____ _ ____ _ ____ _ ____ _ ____
 72
   65
 73
    4
 40
50.8
 49
31.75
 74
    0
 49
-6.35
 74
    0
 49
6.35
 74
    0
 49
-6.35
 74
    0
  0
LTYPE
  5
47
330
5
100
AcDbSymbolTableRecord
100
AcDbLinetypeTableRecord
  2
CENTERTINY
 70
    0
  3
Center (.15x) ___ _ ___ _ ___ _ ___ _ ___ _ ___
 72
   65
 73
    4
 40
7.619999999999999
 49
4.7625
 74
    0
 49
-0.9525
 74
    0
 49
0.9525
 74
    0
 49
-0.9525
 74
    0
  0
LTYPE
  5
48
330
5
100
AcDbSymbolTableRecord
100
AcDbLinetypeTableRecord
  2
CENTER2
 70
    0
  3
Center (.5x) ___ _ ___ _ ___ _ ___ _ ___ _ ___
 72
   65
 73
    4
 40
28.575
 49
19.05
 74
    0
 49
-3.175
 74
    0
 49
3.175
 74
    0
 49
-3.175
 74
    0
  0
LTYPE
  5
49
330
5
100
AcDbSymbolTableRecord
100
AcDbLinetypeTableRecord
  2
CENTERX2
 70
    0
  3
Center (2x) ________  __  ________  __  _____
 72
   65
 73
    4
 40
101.6
 49
63.5
 74
    0
 49
-12.7
 74
    0
 49
12.7
 74
    0
 49
-12.7
 74
    0
  0
ENDTAB
  0
TABLE
  2
LAYER
  5
2
330
0
100
AcDbSymbolTable
 70
    1
  0
LAYER
  5
10
330
2
100
AcDbSymbolTableRecord
100
AcDbLayerTableRecord
  2
0
 70
    4
 62
    7
  6
CONTINUOUS
370
    0
390
F
  0
LAYER
  5
4A
330
2
100
AcDbSymbolTableRecord
100
AcDbLayerTableRecord
  2
Station Marks
 70
    5
 62
    7
  6
CONTINUOUS
370
   -3
390
F
  0
LAYER
  5
4B
330
2
100
AcDbSymbolTableRecord
100
AcDbLayerTableRecord
  2
exterior
 70
    4
 62
    4
  6
CONTINUOUS
370
    0
390
F
  0
LAYER
  5
4C
330
2
100
AcDbSymbolTableRecord
100
AcDbLayerTableRecord
  2
interior
 70
    4
 62
    3
  6
CONTINUOUS
370
    0
390
F
  0
ENDTAB
  0
TABLE
  2
STYLE
  5
3
330
0
100
AcDbSymbolTable
 70
    3
  0
STYLE
  5
4D
330
2
100
AcDbSymbolTableRecord
100
AcDbTextStyleTableRecord
  2
standard
 70
    0
 40
0
 41
1
 50
0
 71
    0
 42
1
  3
standard
  4

  0
ENDTAB
  0
TABLE
  2
VIEW
  5
6
330
0
100
AcDbSymbolTable
 70
    0
  0
ENDTAB
  0
TABLE
  2
UCS
  5
7
330
0
100
AcDbSymbolTable
 70
    0
  0
ENDTAB
  0
TABLE
  2
APPID
  5
9
330
0
100
AcDbSymbolTable
 70
    1
  0
APPID
  5
12
330
9
100
AcDbSymbolTableRecord
100
AcDbRegAppTableRecord
  2
ACAD
 70
    0
  0
APPID
  5
4E
330
9
100
AcDbSymbolTableRecord
100
AcDbRegAppTableRecord
  2
LibreCad
 70
    0
  0
ENDTAB
  0
TABLE
  2
DIMSTYLE
  5
A
330
0
100
AcDbSymbolTable
 70
    1
100
AcDbDimStyleTable
 71
    1
  0
DIMSTYLE
105
4F
330
A
100
AcDbSymbolTableRecord
100
AcDbDimStyleTableRecord
  2
Standard
 70
    0
 40
2.5
 41
0.0025
 42
0.000625
 43
0.38
 44
0.00125
 45
0
 46
0
 47
0
 48
0
 49
1
140
0.0025
141
0.09
142
0
143
25.4
144
1
145
0
146
1
147
0.000625
148
0
 71
    0
 72
    0
 73
    0
 74
    1
 75
    0
 76
    0
 77
    0
 78
    8
 79
    0
170
    0
171
    2
172
    0
173
    0
174
    0
175
    0
176
    0
177
    0
178
    0
179
    0
271
    2
272
    4
273
    2
274
    2
275
    0
276
    0
277
    2
278
   44
279
    0
280
    0
281
    0
282
    0
283
    1
284
    0
285
    0
286
    0
288
    0
289
    3
340
STANDARD
341

371
   -2
372
   -2
  0
ENDTAB
  0
TABLE
  2
BLOCK_RECORD
  5
1
330
0
100
AcDbSymbolTable
 70
    2
  0
BLOCK_RECORD
  5
1F
330
1
100
AcDbSymbolTableRecord
100
AcDbBlockTableRecord
  2
*Model_Space
 70
    0
280
    1
281
    0
  0
BLOCK_RECORD
  5
1E
330
1
100
AcDbSymbolTableRecord
100
AcDbBlockTableRecord
  2
*Paper_Space
 70
    0
280
    1
281
    0
  0
ENDTAB
  0
ENDSEC
  0
SECTION
  2
BLOCKS
  0
BLOCK
  5
20
330
1F
100
AcDbEntity
  8
0
100
AcDbBlockBegin
  2
*Model_Space
 70
    0
 10
0
 20
0
 30
0
  3
*Model_Space
  1

  0
ENDBLK
  5
21
330
1F
100
AcDbEntity
  8
0
100
AcDbBlockEnd
  0
BLOCK
  5
1C
330
1B
100
AcDbEntity
  8
0
100
AcDbBlockBegin
  2
*Paper_Space
 70
    0
 10
0
 20
0
 30
0
  3
*Paper_Space
  1

  0
ENDBLK
  5
1D
330
1F
100
AcDbEntity
  8
0
100
AcDbBlockEnd
  0
ENDSEC
  0
SECTION
  2
ENTITIES
  0
MTEXT
  5
50
100
AcDbEntity
  8
Station Marks
  6
ByLayer
 62
    5
370
   -1
100
AcDbMText
 10
25.52105269976092
 20
-20.28223886915593
 30
0
 40
1.772671542080883
 41
1.181781028053922
 71
    1
 72
    5
  1
A
  7
standard
210
0
220
0
230
1
 50
1.125133111111103
 73
    1
 44
1
  0
MTEXT
  5
51
100
AcDbEntity
  8
Station Marks
  6
ByLayer
 62
    5
370
   -1
100
AcDbMText
 10
-17.52775747941678
 20
-46.12395459801449
 30
0
 40
1.772671542080883
 41
0.9848175233782683
 71
    1
 72
    5
  1
B
  7
standard
210
0
220
0
230
1
 50
1.125133111111103
 73
    1
 44
1
  0
MTEXT
  5
52
100
AcDbEntity
  8
Station Marks
  6
ByLayer
 62
    5
370
   -1
100
AcDbMText
 10
-59.48207031249448
 20
-99.84317986543228
 30
0
 40
1.772671542080883
 41
0.7878540187027245
 71
    1
 72
    5
  1
C
  7
standard
210
0
220
0
230
1
 50
1.125133111111103
 73
    1
 44
1
  0
MTEXT
  5
53
100
AcDbEntity
  8
Station Marks
  6
ByLayer
 62
    5
370
   -1
100
AcDbMText
 10
-76.78125213414187
 20
-113.7273172362726
 30
0
 40
1.772671542080883
 41
0.9848175233783782
 71
    1
 72
    5
  1
D
  7
standard
210
0
220
0
230
1
 50
1.125133111111103
 73
    1
 44
1
  0
MTEXT
  5
54
100
AcDbEntity
  8
Station Marks
  6
ByLayer
 62
    5
370
   -1
100
AcDbMText
 10
-101.3249825162817
 20
-27.47801418775637
 30
0
 40
1.772671542080883
 41
0.7878540187026146
 71
    1
 72
    5
  1
F
  7
standard
210
0
220
0
230
1
 50
1.125133111111103
 73
    1
 44
1
  0
MTEXT
  5
55
100
AcDbEntity
  8
Station Marks
  6
ByLayer
 62
    5
370
   -1
100
AcDbMText
 10
-11.07158322403208
 20
-3.52007983775465
 30
0
 40
1.772671542080883
 41
0.9848175233783782
 71
    1
 72
    5
  1
G
  7
standard
210
0
220
0
230
1
 50
1.125133111111103
 73
    1
 44
1
  0
MTEXT
  5
56
100
AcDbEntity
  8
Station Marks
  6
ByLayer
 62
    5
370
   -1
100
AcDbMText
 10
1.633836253719551
 20
33.88650072046815
 30
0
 40
1.772671542080883
 41
0.7878540187026146
 71
    1
 72
    5
  1
L
  7
standard
210
0
220
0
230
1
 50
1.125133111111103
 73
    1
 44
1
  0
MTEXT
  5
57
100
AcDbEntity
  8
Station Marks
  6
ByLayer
 62
    5
370
   -1
100
AcDbMText
 10
-19.20196995396242
 20
23.22581878714487
 30
0
 40
1.772671542080883
 41
1.181781028053922
 71
    1
 72
    5
  1
M
  7
standard
210
0
220
0
230
1
 50
1.125133111111103
 73
    1
 44
1
  0
MTEXT
  5
58
100
AcDbEntity
  8
Station Marks
  6
ByLayer
 62
    5
370
   -1
100
AcDbMText
 10
-31.37322497212458
 20
16.50240922453941
 30
0
 40
1.772671542080883
 41
0.9848175233782683
 71
    1
 72
    5
  1
N
  7
standard
210
0
220
0
230
1
 50
1.125133111111103
 73
    1
 44
1
  0
MTEXT
  5
59
100
AcDbEntity
  8
Station Marks
  6
ByLayer
 62
    5
370
   -1
100
AcDbMText
 10
-14.56909127198031
 20
16.96102580039422
 30
0
 40
1.772671542080883
 41
0.9848175233782683
 71
    1
 72
    5
  1
O
  7
standard
210
0
220
0
230
1
 50
1.125133111111103
 73
    1
 44
1
  0
MTEXT
  5
5A
100
AcDbEntity
  8
Station Marks
  6
ByLayer
 62
    5
370
   -1
100
AcDbMText
 10
2.562551925941577
 20
14.35081061678085
 30
0
 40
1.772671542080883
 41
0.9848175233782683
 71
    1
 72
    5
  1
P
  7
standard
210
0
220
0
230
1
 50
1.125133111111103
 73
    1
 44
1
  0
MTEXT
  5
5B
100
AcDbEntity
  8
Station Marks
  6
ByLayer
 62
    5
370
   -1
100
AcDbMText
 10
17.17794925952659
 20
16.98427489375905
 30
0
 40
1.772671542080883
 41
1.181781028053922
 71
    1
 72
    5
  1
Q
  7
standard
210
0
220
0
230
1
 50
1.125133111111103
 73
    1
 44
1
  0
MTEXT
  5
5C
100
AcDbEntity
  8
Station Marks
  6
ByLayer
 62
    5
370
   -1
100
AcDbMText
 10
1.233233120713891
 20
1.030991287408654
 30
0
 40
1.772671542080883
 41
0.9848175233782683
 71
    1
 72
    5
  1
R
  7
standard
210
0
220
0
230
1
 50
1.125133111111103
 73
    1
 44
1
  0
MTEXT
  5
5D
100
AcDbEntity
  8
Station Marks
  6
ByLayer
 62
    5
370
   -1
100
AcDbMText
 10
25.74230921222343
 20
-2.843030297719181
 30
0
 40
1.772671542080883
 41
0.9848171475680914
 71
    1
 72
    5
  1
S
  7
standard
210
0
220
0
230
1
 50
1.125133111111103
 73
    1
 44
1
  0
MTEXT
  5
5E
100
AcDbEntity
  8
Station Marks
  6
ByLayer
 62
    5
370
   -1
100
AcDbMText
 10
12.1709314104198
 20
2.05367114080434
 30
0
 40
1.772671542080883
 41
0.9848175233782683
 71
    1
 72
    5
  1
T
  7
standard
210
0
220
0
230
1
 50
1.125133111111103
 73
    1
 44
1
  0
MTEXT
  5
5F
100
AcDbEntity
  8
Station Marks
  6
ByLayer
 62
    5
370
   -1
100
AcDbMText
 10
17.23326704886553
 20
-14.87928687542841
 30
0
 40
1.772671542080883
 41
0.9848175233782683
 71
    1
 72
    5
  1
U
  7
standard
210
0
220
0
230
1
 50
1.125133111111103
 73
    1
 44
1
  0
MTEXT
  5
60
100
AcDbEntity
  8
Station Marks
  6
ByLayer
 62
    5
370
   -1
100
AcDbMText
 10
0.1160901558866385
 20
-12.60418462952178
 30
0
 40
1.772671542080883
 41
1.181781028053922
 71
    1
 72
    5
  1
V
  7
standard
210
0
220
0
230
1
 50
1.125133111111103
 73
    1
 44
1
  0
MTEXT
  5
61
100
AcDbEntity
  8
Station Marks
  6
ByLayer
 62
    5
370
   -1
100
AcDbMText
 10
-14.76227105117596
 20
-14.86175686851409
 30
0
 40
1.772671542080883
 41
1.575708037405229
 71
    1
 72
    5
  1
W
  7
standard
210
0
220
0
230
1
 50
1.125133111111103
 73
    1
 44
1
  0
MTEXT
  5
62
100
AcDbEntity
  8
Station Marks
  6
ByLayer
 62
    5
370
   -1
100
AcDbMText
 10
-12.65962957869188
 20
1.034265582064251
 30
0
 40
1.772671542080883
 41
1.181781028053922
 71
    1
 72
    5
  1
X
  7
standard
210
0
220
0
230
1
 50
1.125133111111103
 73
    1
 44
1
  0
MTEXT
  5
63
100
AcDbEntity
  8
Station Marks
  6
ByLayer
 62
    5
370
   -1
100
AcDbMText
 10
-26.86012398699808
 20
-2.482221432237409
 30
0
 40
1.772671542080883
 41
1.181781028053922
 71
    1
 72
    5
  1
Y
  7
standard
210
0
220
0
230
1
 50
1.125133111111103
 73
    1
 44
1
  0
MTEXT
  5
64
100
AcDbEntity
  8
Station Marks
  6
ByLayer
 62
    5
370
   -1
100
AcDbMText
 10
12.20407633422441
 20
-28.20564921938072
 30
0
 40
1.772671542080883
 41
0.9848175233782683
 71
    1
 72
    5
  1
Z
  7
standard
210
0
220
0
230
1
 50
1.125133111111103
 73
    1
 44
1
  0
MTEXT
  5
65
100
AcDbEntity
  8
Station Marks
  6
ByLayer
 62
    5
370
   -1
100
AcDbMText
 10
-15.32483646905463
 20
-26.51656442621179
 30
0
 40
1.772671542080883
 41
0.787854018702697
 71
    1
 72
    5
  1
a
  7
standard
210
0
220
0
230
1
 50
1.125133111111103
 73
    1
 44
1
  0
MTEXT
  5
66
100
AcDbEntity
  8
Station Marks
  6
ByLayer
 62
    5
370
   -1
100
AcDbMText
 10
-44.17272797424346
 20
-34.77111664715545
 30
0
 40
1.772671542080883
 41
0.787854018702697
 71
    1
 72
    5
  1
b
  7
standard
210
0
220
0
230
1
 50
1.125133111111103
 73
    1
 44
1
  0
MTEXT
  5
67
100
AcDbEntity
  8
Station Marks
  6
ByLayer
 62
    5
370
   -1
100
AcDbMText
 10
-63.40700117673094
 20
-24.5246328542033
 30
0
 40
1.772671542080883
 41
0.7878540187027794
 71
    1
 72
    5
  1
g
  7
standard
210
0
220
0
230
1
 50
1.125133111111103
 73
    1
 44
1
  0
MTEXT
  5
68
100
AcDbEntity
  8
Station Marks
  6
ByLayer
 62
    5
370
   -1
100
AcDbMText
 10
-59.27370063842464
 20
-32.57550967553661
 30
0
 40
1.772671542080883
 41
0.787854018702697
 71
    1
 72
    5
  1
d
  7
standard
210
0
220
0
230
1
 50
1.125133111111103
 73
    1
 44
1
  0
MTEXT
  5
69
100
AcDbEntity
  8
Station Marks
  6
ByLayer
 62
    5
370
   -1
100
AcDbMText
 10
-29.91792147069837
 20
-32.69953412874918
 30
0
 40
1.772671542080883
 41
0.787854018702697
 71
    1
 72
    5
  1
e
  7
standard
210
0
220
0
230
1
 50
1.125133111111103
 73
    1
 44
1
  0
MTEXT
  5
6A
100
AcDbEntity
  8
Station Marks
  6
ByLayer
 62
    5
370
   -1
100
AcDbMText
 10
-30.48442219012853
 20
-61.34946384991994
 30
0
 40
1.772671542080883
 41
0.7878540187026146
 71
    1
 72
    5
  1
z
  7
standard
210
0
220
0
230
1
 50
1.125133111111103
 73
    1
 44
1
  0
MTEXT
  5
6B
100
AcDbEntity
  8
Station Marks
  6
ByLayer
 62
    5
370
   -1
100
AcDbMText
 10
-59.21545738793346
 20
-62.28017275106653
 30
0
 40
1.772671542080883
 41
0.787854018702697
 71
    1
 72
    5
  1
h
  7
standard
210
0
220
0
230
1
 50
1.125133111111103
 73
    1
 44
1
  0
MTEXT
  5
6C
100
AcDbEntity
  8
Station Marks
  6
ByLayer
 62
    5
370
   -1
100
AcDbMText
 10
-63.37318097757112
 20
-56.47187742243895
 30
0
 40
1.772671542080883
 41
0.7878540187026146
 71
    1
 72
    5
  1
q
  7
standard
210
0
220
0
230
1
 50
1.125133111111103
 73
    1
 44
1
  0
MTEXT
  5
6D
100
AcDbEntity
  8
Station Marks
  6
ByLayer
 62
    5
370
   -1
100
AcDbMText
 10
-99.9427529346501
 20
-86.25836444020001
 30
0
 40
1.772671542080883
 41
0
 71
    1
 72
    5
  1
i
  7
standard
210
0
220
0
230
1
 50
1.125133111111103
 73
    1
 44
1
  0
MTEXT
  5
6E
100
AcDbEntity
  8
Station Marks
  6
ByLayer
 62
    5
370
   -1
100
AcDbMText
 10
-95.02084909590701
 20
-112.5055702815257
 30
0
 40
1.772671542080883
 41
0.7878540187026146
 71
    1
 72
    5
  1
k
  7
standard
210
0
220
0
230
1
 50
1.125133111111103
 73
    1
 44
1
  0
MTEXT
  5
6F
100
AcDbEntity
  8
Station Marks
  6
ByLayer
 62
    5
370
   -1
100
AcDbMText
 10
-1.231943478416127
 20
16.80664598982676
 30
0
 40
1.772671542080883
 41
0.7878540187026146
 71
    1
 72
    5
  1
p
  7
standard
210
0
220
0
230
1
 50
1.125133111111103
 73
    1
 44
1
  0
MTEXT
  5
70
100
AcDbEntity
  8
Station Marks
  6
ByLayer
 62
    5
370
   -1
100
AcDbMText
 10
20.87498499980354
 20
13.46937917040978
 30
0
 40
1.772671542080883
 41
0.5908905140269609
 71
    1
 72
    5
  1
r
  7
standard
210
0
220
0
230
1
 50
1.125133111111103
 73
    1
 44
1
  0
MTEXT
  5
71
100
AcDbEntity
  8
Station Marks
  6
ByLayer
 62
    5
370
   -1
100
AcDbMText
 10
21.04059956593576
 20
6.075780821168621
 30
0
 40
1.772671542080883
 41
2.167273544851826
 71
    1
 72
    5
  1
s?
  7
standard
210
0
220
0
230
1
 50
1.125133111111103
 73
    1
 44
1
  0
MTEXT
  5
72
100
AcDbEntity
  8
Station Marks
  6
ByLayer
 62
    5
370
   -1
100
AcDbMText
 10
21.04163624956649
 20
-3.675551518968817
 30
0
 40
1.772671542080883
 41
0.5908905140269609
 71
    1
 72
    5
  1
t
  7
standard
210
0
220
0
230
1
 50
1.125133111111103
 73
    1
 44
1
  0
MTEXT
  5
73
100
AcDbEntity
  8
Station Marks
  6
ByLayer
 62
    5
370
   -1
100
AcDbMText
 10
21.31747691036722
 20
-10.90731508615778
 30
0
 40
1.772671542080883
 41
0.787854018702697
 71
    1
 72
    5
  1
u
  7
standard
210
0
220
0
230
1
 50
1.125133111111103
 73
    1
 44
1
  0
MTEXT
  5
74
100
AcDbEntity
  8
Station Marks
  6
ByLayer
 62
    5
370
   -1
100
AcDbMText
 10
25.88643464815163
 20
3.283958553573342
 30
0
 40
1.772671542080883
 41
0.3939270093513898
 71
    1
 72
    5
  1
j
  7
standard
210
0
220
0
230
1
 50
1.125133111111103
 73
    1
 44
1
  0
MTEXT
  5
75
100
AcDbEntity
  8
Station Marks
  6
ByLayer
 62
    5
370
   -1
100
AcDbMText
 10
31.76356419367733
 20
3.685721058285651
 30
0
 40
1.772671542080883
 41
0.5908905140270433
 71
    1
 72
    5
  1
c
  7
standard
210
0
220
0
230
1
 50
1.125133111111103
 73
    1
 44
1
  0
LINE
  5
76
100
AcDbEntity
  8
Station Marks
  6
ByLayer
 62
    5
370
   -1
100
AcDbLine
 10
27.7950543007419
 20
5.25488911738978
 11
27.83458652677245
 21
3.242026347274901
  0
LINE
  5
77
100
AcDbEntity
  8
Station Marks
  6
ByLayer
 62
    5
370
   -1
100
AcDbLine
 10
26.80838902876218
 20
4.228691619254647
 11
28.82125179875217
 21
4.268223845410091
  0
CIRCLE
  5
78
100
AcDbEntity
  8
Station Marks
  6
ByLayer
 62
    5
370
   -1
100
AcDbCircle
 10
27.81482041375716
 20
4.248457732269884
 40
0.7744705207443496
  0
LINE
  5
79
100
AcDbEntity
  8
Station Marks
  6
ByLayer
 62
    5
370
   -1
100
AcDbLine
 10
30.54589379171068
 20
3.550901365057399
 11
30.58542601777251
 21
1.538038595067405
  0
LINE
  5
7A
100
AcDbEntity
  8
Station Marks
  6
ByLayer
 62
    5
370
   -1
100
AcDbLine
 10
29.55922851973096
 20
2.524703867047151
 11
31.57209128975217
 21
2.564236093077653
  0
CIRCLE
  5
7B
100
AcDbEntity
  8
Station Marks
  6
ByLayer
 62
    5
370
   -1
100
AcDbCircle
 10
30.56565990475724
 20
2.544469980062416
 40
0.7744705207443496
  0
LINE
  5
7C
100
AcDbEntity
  8
Station Marks
  6
ByLayer
 62
    5
370
   -1
100
AcDbLine
 10
25.01864727109488
 20
2.915425489524921
 11
25.05817949715663
 21
0.9025627195349273
  0
LINE
  5
7D
100
AcDbEntity
  8
Station Marks
  6
ByLayer
 62
    5
370
   -1
100
AcDbLine
 10
24.03198199911513
 20
1.889227991514645
 11
26.04484476913638
 21
1.928760217545204
  0
CIRCLE
  5
7E
100
AcDbEntity
  8
Station Marks
  6
ByLayer
 62
    5
370
   -1
100
AcDbCircle
 10
25.03841338414136
 20
1.908994104529938
 40
0.7744705207443496
  0
MTEXT
  5
7F
100
AcDbEntity
  8
Station Marks
  6
ByLayer
 62
    5
370
   -1
100
AcDbMText
 10
28.77059756100221
 20
5.798633710028184
 30
0
 40
1.772671542080883
 41
0.7878540187026146
 71
    1
 72
    5
  1
y
  7
standard
210
0
220
0
230
1
 50
1.125133111111103
 73
    1
 44
1
  0
LINE
  5
80
100
AcDbEntity
  8
Station Marks
  6
ByLayer
 62
    5
370
   -1
100
AcDbLine
 10
27.79564308974255
 20
8.787222063890709
 11
27.83517531577309
 21
6.774359293900716
  0
LINE
  5
81
100
AcDbEntity
  8
Station Marks
  6
ByLayer
 62
    5
370
   -1
100
AcDbLine
 10
26.80897781776281
 20
7.761024565880433
 11
28.82184058775283
 21
7.800556791910992
  0
CIRCLE
  5
82
100
AcDbEntity
  8
Station Marks
  6
ByLayer
 62
    5
370
   -1
100
AcDbCircle
 10
27.81540920275785
 20
7.780790678895698
 40
0.7744705207443496
  0
MTEXT
  5
83
100
AcDbEntity
  8
Station Marks
  6
ByLayer
 62
    5
370
   -1
100
AcDbMText
 10
29.05037680851063
 20
8.909163703058397
 30
0
 40
1.772671542080883
 41
1.181781028053922
 71
    1
 72
    5
  1
w
  7
standard
210
0
220
0
230
1
 50
1.125133111111103
 73
    1
 44
1
  0
LINE
  5
84
100
AcDbEntity
  8
Station Marks
  6
ByLayer
 62
    5
370
   -1
100
AcDbLine
 10
-78.28037054221423
 20
-113.7293185205456
 11
-78.24083831615248
 21
-115.7421812905356
  0
LINE
  5
85
100
AcDbEntity
  8
Station Marks
  6
ByLayer
 62
    5
370
   -1
100
AcDbLine
 10
-79.26703581419396
 20
-114.7555160185559
 11
-77.25417304417275
 21
-114.7159837925254
  0
CIRCLE
  5
86
100
AcDbEntity
  8
Station Marks
  6
ByLayer
 62
    5
370
   -1
100
AcDbCircle
 10
-78.26060442916774
 20
-114.7357499055406
 40
0.7744705207443496
  0
LINE
  5
87
100
AcDbEntity
  8
Station Marks
  6
ByLayer
 62
    5
370
   -1
100
AcDbLine
 10
-96.39156784692941
 20
-112.5093063893124
 11
-96.35203562089887
 21
-114.5221691593024
  0
LINE
  5
88
100
AcDbEntity
  8
Station Marks
  6
ByLayer
 62
    5
370
   -1
100
AcDbLine
 10
-97.37823311890914
 20
-113.5355038873227
 11
-95.36537034888792
 21
-113.4959716612922
  0
CIRCLE
  5
89
100
AcDbEntity
  8
Station Marks
  6
ByLayer
 62
    5
370
   -1
100
AcDbCircle
 10
-96.37180173391414
 20
-113.5157377743074
 40
0.7744705207443496
  0
LINE
  5
8A
100
AcDbEntity
  8
Station Marks
  6
ByLayer
 62
    5
370
   -1
100
AcDbLine
 10
-60.86937411619217
 20
-99.89830187288958
 11
-60.82984189013043
 21
-101.9111646428796
  0
LINE
  5
8B
100
AcDbEntity
  8
Station Marks
  6
ByLayer
 62
    5
370
   -1
100
AcDbLine
 10
-61.85603938817191
 20
-100.9244993708998
 11
-59.84317661815069
 21
-100.8849671448693
  0
CIRCLE
  5
8C
100
AcDbEntity
  8
Station Marks
  6
ByLayer
 62
    5
370
   -1
100
AcDbCircle
 10
-60.8496080031457
 20
-100.9047332578846
 40
0.7744705207443496
  0
LINE
  5
8D
100
AcDbEntity
  8
Station Marks
  6
ByLayer
 62
    5
370
   -1
100
AcDbLine
 10
-101.3969603614337
 20
-86.17391427370823
 11
-101.3574281353719
 21
-88.1867770438231
  0
LINE
  5
8E
100
AcDbEntity
  8
Station Marks
  6
ByLayer
 62
    5
370
   -1
100
AcDbLine
 10
-102.3836256334134
 20
-87.20011177184335
 11
-100.3707628633922
 21
-87.16057954568795
  0
CIRCLE
  5
8F
100
AcDbEntity
  8
Station Marks
  6
ByLayer
 62
    5
370
   -1
100
AcDbCircle
 10
-101.3771942484184
 20
-87.1803456587032
 40
0.7744705207443496
  0
LINE
  5
90
100
AcDbEntity
  8
Station Marks
  6
ByLayer
 62
    5
370
   -1
100
AcDbLine
 10
-31.80132773795509
 20
-61.54552424658294
 11
-31.76179551192457
 21
-63.55838701657292
  0
LINE
  5
91
100
AcDbEntity
  8
Station Marks
  6
ByLayer
 62
    5
370
   -1
100
AcDbLine
 10
-32.78799300993484
 20
-62.57172174459321
 11
-30.77513023994486
 21
-62.53218951856266
  0
CIRCLE
  5
92
100
AcDbEntity
  8
Station Marks
  6
ByLayer
 62
    5
370
   -1
100
AcDbCircle
 10
-31.78156162493983
 20
-62.55195563157795
 40
0.7744705207443496
  0
LINE
  5
93
100
AcDbEntity
  8
Station Marks
  6
ByLayer
 62
    5
370
   -1
100
AcDbLine
 10
-18.89056871196088
 20
-46.08810374140324
 11
-18.85103648589916
 21
-48.10096651139324
  0
LINE
  5
94
100
AcDbEntity
  8
Station Marks
  6
ByLayer
 62
    5
370
   -1
100
AcDbLine
 10
-19.87723398394061
 20
-47.11430123941354
 11
-17.86437121391941
 21
-47.07476901338298
  0
CIRCLE
  5
95
100
AcDbEntity
  8
Station Marks
  6
ByLayer
 62
    5
370
   -1
100
AcDbCircle
 10
-18.87080259891441
 20
-47.09453512639824
 40
0.7744705207443496
  0
LINE
  5
96
100
AcDbEntity
  8
Station Marks
  6
ByLayer
 62
    5
370
   -1
100
AcDbLine
 10
-60.64641173065946
 20
-62.30474480697258
 11
-60.6068795046289
 21
-64.31760757696263
  0
LINE
  5
97
100
AcDbEntity
  8
Station Marks
  6
ByLayer
 62
    5
370
   -1
100
AcDbLine
 10
-61.6330770026704
 20
-63.33094230498288
 11
-59.62021423264919
 21
-63.29141007895232
  0
CIRCLE
  5
98
100
AcDbEntity
  8
Station Marks
  6
ByLayer
 62
    5
370
   -1
100
AcDbCircle
 10
-60.62664561764417
 20
-63.31117619196759
 40
0.7744705207443496
  0
LINE
  5
99
100
AcDbEntity
  8
Station Marks
  6
ByLayer
 62
    5
370
   -1
100
AcDbLine
 10
-64.58277892303039
 20
-56.84964968315241
 11
-64.54324669699987
 21
-58.86251245314243
  0
LINE
  5
9A
100
AcDbEntity
  8
Station Marks
  6
ByLayer
 62
    5
370
   -1
100
AcDbLine
 10
-65.56944419504134
 20
-57.8758471811627
 11
-63.55658142502013
 21
-57.83631495513215
  0
CIRCLE
  5
9B
100
AcDbEntity
  8
Station Marks
  6
ByLayer
 62
    5
370
   -1
100
AcDbCircle
 10
-64.56301281001514
 20
-57.85608106814742
 40
0.7744705207443496
  0
LINE
  5
9C
100
AcDbEntity
  8
Station Marks
  6
ByLayer
 62
    5
370
   -1
100
AcDbLine
 10
-102.9612535402561
 20
-27.40303772629676
 11
-102.9217213142256
 21
-29.41590049641165
  0
LINE
  5
9D
100
AcDbEntity
  8
Station Marks
  6
ByLayer
 62
    5
370
   -1
100
AcDbLine
 10
-103.947918812267
 20
-28.42923522443192
 11
-101.9350560422458
 21
-28.38970299827653
  0
CIRCLE
  5
9E
100
AcDbEntity
  8
Station Marks
  6
ByLayer
 62
    5
370
   -1
100
AcDbCircle
 10
-102.9414874272408
 20
-28.40946911129176
 40
0.7744705207443496
  0
LINE
  5
9F
100
AcDbEntity
  8
Station Marks
  6
ByLayer
 62
    5
370
   -1
100
AcDbLine
 10
-64.63002125363221
 20
-24.87954690737828
 11
-64.59048902757047
 21
-26.89240967736828
  0
LINE
  5
A0
100
AcDbEntity
  8
Station Marks
  6
ByLayer
 62
    5
370
   -1
100
AcDbLine
 10
-65.61668652561194
 20
-25.90574440538856
 11
-63.60382375559072
 21
-25.866212179358
  0
CIRCLE
  5
A1
100
AcDbEntity
  8
Station Marks
  6
ByLayer
 62
    5
370
   -1
100
AcDbCircle
 10
-64.61025514058571
 20
-25.8859782923733
 40
0.7744705207443496
  0
LINE
  5
A2
100
AcDbEntity
  8
Station Marks
  6
ByLayer
 62
    5
370
   -1
100
AcDbLine
 10
-60.76571341723377
 20
-32.7105122522667
 11
-60.72618119120322
 21
-34.72337502238157
  0
LINE
  5
A3
100
AcDbEntity
  8
Station Marks
  6
ByLayer
 62
    5
370
   -1
100
AcDbLine
 10
-61.75237868924469
 20
-33.73670975040186
 11
-59.7395159192235
 21
-33.69717752437131
  0
CIRCLE
  5
A4
100
AcDbEntity
  8
Station Marks
  6
ByLayer
 62
    5
370
   -1
100
AcDbCircle
 10
-60.74594730421848
 20
-33.71694363738659
 40
0.7744705207443496
  0
LINE
  5
A5
100
AcDbEntity
  8
Station Marks
  6
ByLayer
 62
    5
370
   -1
100
AcDbLine
 10
-45.51049412581443
 20
-34.89065702236472
 11
-45.47096189975268
 21
-36.90351979235473
  0
LINE
  5
A6
100
AcDbEntity
  8
Station Marks
  6
ByLayer
 62
    5
370
   -1
100
AcDbLine
 10
-46.49715939779418
 20
-35.91685452037498
 11
-44.48429662777293
 21
-35.87732229434447
  0
CIRCLE
  5
A7
100
AcDbEntity
  8
Station Marks
  6
ByLayer
 62
    5
370
   -1
100
AcDbCircle
 10
-45.49072801279917
 20
-35.89708840735972
 40
0.7744705207443496
  0
LINE
  5
A8
100
AcDbEntity
  8
Station Marks
  6
ByLayer
 62
    5
370
   -1
100
AcDbLine
 10
-31.21093655111763
 20
-32.82651967860778
 11
-31.17140432505587
 21
-34.8393824485978
  0
LINE
  5
A9
100
AcDbEntity
  8
Station Marks
  6
ByLayer
 62
    5
370
   -1
100
AcDbLine
 10
-32.19760182309739
 20
-33.85271717661809
 11
-30.18473905307616
 21
-33.81318495058754
  0
CIRCLE
  5
AA
100
AcDbEntity
  8
Station Marks
  6
ByLayer
 62
    5
370
   -1
100
AcDbCircle
 10
-31.19117043810236
 20
-33.83295106360279
 40
0.7744705207443496
  0
LINE
  5
AB
100
AcDbEntity
  8
Station Marks
  6
ByLayer
 62
    5
370
   -1
100
AcDbLine
 10
11.03730084287436
 20
-28.14686912489627
 11
11.07683306893611
 21
-30.15973189488625
  0
LINE
  5
AC
100
AcDbEntity
  8
Station Marks
  6
ByLayer
 62
    5
370
   -1
100
AcDbLine
 10
10.05063557089464
 20
-29.17306662290653
 11
12.06349834091586
 21
-29.13353439687599
  0
CIRCLE
  5
AD
100
AcDbEntity
  8
Station Marks
  6
ByLayer
 62
    5
370
   -1
100
AcDbCircle
 10
11.05706695588964
 20
-29.15330050989127
 40
0.7744705207443496
  0
LINE
  5
AE
100
AcDbEntity
  8
Station Marks
  6
ByLayer
 62
    5
370
   -1
100
AcDbLine
 10
-16.49639909411964
 20
-26.76163655383593
 11
-16.45686686808908
 21
-28.77449932382594
  0
LINE
  5
AF
100
AcDbEntity
  8
Station Marks
  6
ByLayer
 62
    5
370
   -1
100
AcDbLine
 10
-17.48306436609937
 20
-27.78783405184619
 11
-15.47020159610938
 21
-27.74830182581564
  0
CIRCLE
  5
B0
100
AcDbEntity
  8
Station Marks
  6
ByLayer
 62
    5
370
   -1
100
AcDbCircle
 10
-16.47663298110437
 20
-27.76806793883092
 40
0.7744705207443496
  0
LINE
  5
B1
100
AcDbEntity
  8
Station Marks
  6
ByLayer
 62
    5
370
   -1
100
AcDbLine
 10
24.51590536674155
 20
-20.29537452390115
 11
24.55543759277208
 21
-22.30823729389114
  0
LINE
  5
B2
100
AcDbEntity
  8
Station Marks
  6
ByLayer
 62
    5
370
   -1
100
AcDbLine
 10
23.52924009476182
 20
-21.32157202191141
 11
25.54210286478305
 21
-21.28203979588088
  0
CIRCLE
  5
B3
100
AcDbEntity
  8
Station Marks
  6
ByLayer
 62
    5
370
   -1
100
AcDbCircle
 10
24.53567147975681
 20
-21.30180590889614
 40
0.7744705207443496
  0
LINE
  5
B4
100
AcDbEntity
  8
Station Marks
  6
ByLayer
 62
    5
370
   -1
100
AcDbLine
 10
15.86705817566573
 20
-14.88694598717619
 11
15.90659040169625
 21
-16.89980875716621
  0
LINE
  5
B5
100
AcDbEntity
  8
Station Marks
  6
ByLayer
 62
    5
370
   -1
100
AcDbLine
 10
14.88039290368596
 20
-15.91314348518647
 11
16.89325567370722
 21
-15.87361125915592
  0
CIRCLE
  5
B6
100
AcDbEntity
  8
Station Marks
  6
ByLayer
 62
    5
370
   -1
100
AcDbCircle
 10
15.88682428868098
 20
-15.89337737217117
 40
0.7744705207443496
  0
LINE
  5
B7
100
AcDbEntity
  8
Station Marks
  6
ByLayer
 62
    5
370
   -1
100
AcDbLine
 10
19.98110543507288
 20
-11.10888209569748
 11
20.0206376611346
 21
-13.12174486568749
  0
LINE
  5
B8
100
AcDbEntity
  8
Station Marks
  6
ByLayer
 62
    5
370
   -1
100
AcDbLine
 10
18.9944401630931
 20
-12.13507959370774
 11
21.00730293311435
 21
-12.09554736767723
  0
CIRCLE
  5
B9
100
AcDbEntity
  8
Station Marks
  6
ByLayer
 62
    5
370
   -1
100
AcDbCircle
 10
20.00087154811933
 20
-12.11531348069249
 40
0.7744705207443496
  0
LINE
  5
BA
100
AcDbEntity
  8
Station Marks
  6
ByLayer
 62
    5
370
   -1
100
AcDbLine
 10
-1.070461260393856
 20
-12.56988019526356
 11
-1.030929034363325
 21
-14.58274296537846
  0
LINE
  5
BB
100
AcDbEntity
  8
Station Marks
  6
ByLayer
 62
    5
370
   -1
100
AcDbLine
 10
-2.057126532373587
 20
-13.59607769339873
 11
-0.04426376235238649
 21
-13.5565454672433
  0
CIRCLE
  5
BC
100
AcDbEntity
  8
Station Marks
  6
ByLayer
 62
    5
370
   -1
100
AcDbCircle
 10
-1.05069514737859
 20
-13.57631158025859
 40
0.7744705207443496
  0
LINE
  5
BD
100
AcDbEntity
  8
Station Marks
  6
ByLayer
 62
    5
370
   -1
100
AcDbLine
 10
-15.8682748830504
 20
-14.8306256098399
 11
-15.82874265701989
 21
-16.84348837982991
  0
LINE
  5
BE
100
AcDbEntity
  8
Station Marks
  6
ByLayer
 62
    5
370
   -1
100
AcDbLine
 10
-16.85494015503015
 20
-15.85682310785016
 11
-14.84207738504013
 21
-15.81729088181964
  0
CIRCLE
  5
BF
100
AcDbEntity
  8
Station Marks
  6
ByLayer
 62
    5
370
   -1
100
AcDbCircle
 10
-15.84850877003514
 20
-15.83705699483491
 40
0.7744705207443496
  0
LINE
  5
C0
100
AcDbEntity
  8
Station Marks
  6
ByLayer
 62
    5
370
   -1
100
AcDbLine
 10
-27.75985104198126
 20
-2.51093760932784
 11
-27.72031881595075
 21
-4.523800379317791
  0
LINE
  5
C1
100
AcDbEntity
  8
Station Marks
  6
ByLayer
 62
    5
370
   -1
100
AcDbLine
 10
-28.74651631399222
 20
-3.537135107338074
 11
-26.733653543971
 21
-3.497602881307515
  0
CIRCLE
  5
C2
100
AcDbEntity
  8
Station Marks
  6
ByLayer
 62
    5
370
   -1
100
AcDbCircle
 10
-27.74008492896601
 20
-3.517368994322823
 40
0.7744705207443496
  0
LINE
  5
C3
100
AcDbEntity
  8
Station Marks
  6
ByLayer
 62
    5
370
   -1
100
AcDbLine
 10
-12.42216268393628
 20
-3.518706502817409
 11
-12.38263045787455
 21
-5.531569272807431
  0
LINE
  5
C4
100
AcDbEntity
  8
Station Marks
  6
ByLayer
 62
    5
370
   -1
100
AcDbLine
 10
-13.40882795591602
 20
-4.544904000827671
 11
-11.39596518589481
 21
-4.50537177479714
  0
CIRCLE
  5
C5
100
AcDbEntity
  8
Station Marks
  6
ByLayer
 62
    5
370
   -1
100
AcDbCircle
 10
-12.40239657088982
 20
-4.525137887812406
 40
0.7744705207443496
  0
LINE
  5
C6
100
AcDbEntity
  8
Station Marks
  6
ByLayer
 62
    5
370
   -1
100
AcDbLine
 10
-13.8112859302564
 20
0.9582455236653971
 11
-13.77175370422589
 21
-1.054617246324611
  0
LINE
  5
C7
100
AcDbEntity
  8
Station Marks
  6
ByLayer
 62
    5
370
   -1
100
AcDbLine
 10
-14.79795120223615
 20
-0.06795197434490774
 11
-12.78508843221491
 21
-0.02841974831434868
  0
CIRCLE
  5
C8
100
AcDbEntity
  8
Station Marks
  6
ByLayer
 62
    5
370
   -1
100
AcDbCircle
 10
-13.79151981724115
 20
-0.048185861329614
 40
0.7744705207443496
  0
LINE
  5
C9
100
AcDbEntity
  8
Station Marks
  6
ByLayer
 62
    5
370
   -1
100
AcDbLine
 10
-0.07690412787340506
 20
1.041323211929438
 11
-0.03737190181165317
 21
-0.9715395581854267
  0
LINE
  5
CA
100
AcDbEntity
  8
Station Marks
  6
ByLayer
 62
    5
370
   -1
100
AcDbLine
 10
-1.063569399853165
 20
0.01512571379430483
 11
0.9492933701680641
 21
0.05465793994972046
  0
CIRCLE
  5
CB
100
AcDbEntity
  8
Station Marks
  6
ByLayer
 62
    5
370
   -1
100
AcDbCircle
 10
-0.05713801482691849
 20
0.03489182680957015
 40
0.7744705207443496
  0
LINE
  5
CC
100
AcDbEntity
  8
Station Marks
  6
ByLayer
 62
    5
370
   -1
100
AcDbLine
 10
19.77018436872554
 20
-3.805337102712485
 11
19.80971659478726
 21
-5.818199872702493
  0
LINE
  5
CD
100
AcDbEntity
  8
Station Marks
  6
ByLayer
 62
    5
370
   -1
100
AcDbLine
 10
18.78351909674576
 20
-4.831534600722776
 11
20.79638186676701
 21
-4.79200237469226
  0
CIRCLE
  5
CE
100
AcDbEntity
  8
Station Marks
  6
ByLayer
 62
    5
370
   -1
100
AcDbCircle
 10
19.789950481772
 20
-4.811768487707511
 40
0.7744705207443496
  0
LINE
  5
CF
100
AcDbEntity
  8
Station Marks
  6
ByLayer
 62
    5
370
   -1
100
AcDbLine
 10
24.52062789709784
 20
-2.927392257974589
 11
24.56016012312836
 21
-4.940255027964596
  0
LINE
  5
D0
100
AcDbEntity
  8
Station Marks
  6
ByLayer
 62
    5
370
   -1
100
AcDbLine
 10
23.53396262511806
 20
-3.953589755984879
 11
25.54682539510807
 21
-3.914057529954334
  0
CIRCLE
  5
D1
100
AcDbEntity
  8
Station Marks
  6
ByLayer
 62
    5
370
   -1
100
AcDbCircle
 10
24.54039401011309
 20
-3.933823642969614
 40
0.7744705207443496
  0
LINE
  5
D2
100
AcDbEntity
  8
Station Marks
  6
ByLayer
 62
    5
370
   -1
100
AcDbLine
 10
14.45222053401703
 20
2.218178933821747
 11
14.49175276004756
 21
0.2053161637068399
  0
LINE
  5
D3
100
AcDbEntity
  8
Station Marks
  6
ByLayer
 62
    5
370
   -1
100
AcDbLine
 10
13.46555526200606
 20
1.191981435686586
 11
15.47841803202732
 21
1.231513661842001
  0
CIRCLE
  5
D4
100
AcDbEntity
  8
Station Marks
  6
ByLayer
 62
    5
370
   -1
100
AcDbCircle
 10
14.4719866470323
 20
1.211747548826708
 40
0.7744705207443496
  0
LINE
  5
D5
100
AcDbEntity
  8
Station Marks
  6
ByLayer
 62
    5
370
   -1
100
AcDbLine
 10
19.74753345875553
 20
5.71842043587003
 11
19.7870656847861
 21
3.705557665880008
  0
LINE
  5
D6
100
AcDbEntity
  8
Station Marks
  6
ByLayer
 62
    5
370
   -1
100
AcDbLine
 10
18.7608681867446
 20
4.692222937859725
 11
20.77373095676582
 21
4.731755163890256
  0
CIRCLE
  5
D7
100
AcDbEntity
  8
Station Marks
  6
ByLayer
 62
    5
370
   -1
100
AcDbCircle
 10
19.76729957177083
 20
4.71198905087499
 40
0.7744705207443496
  0
LINE
  5
D8
100
AcDbEntity
  8
Station Marks
  6
ByLayer
 62
    5
370
   -1
100
AcDbLine
 10
19.51124256832831
 20
13.37394223213028
 11
19.55077479439007
 21
11.36107946214028
  0
LINE
  5
D9
100
AcDbEntity
  8
Station Marks
  6
ByLayer
 62
    5
370
   -1
100
AcDbLine
 10
18.52457729634858
 20
12.34774473412003
 11
20.53744006636981
 21
12.38727696015053
  0
CIRCLE
  5
DA
100
AcDbEntity
  8
Station Marks
  6
ByLayer
 62
    5
370
   -1
100
AcDbCircle
 10
19.53100868137481
 20
12.36751084713526
 40
0.7744705207443496
  0
LINE
  5
DB
100
AcDbEntity
  8
Station Marks
  6
ByLayer
 62
    5
370
   -1
100
AcDbLine
 10
15.87603339281317
 20
16.87937146291731
 11
15.91556561884371
 21
14.86650869292734
  0
LINE
  5
DC
100
AcDbEntity
  8
Station Marks
  6
ByLayer
 62
    5
370
   -1
100
AcDbLine
 10
14.88936812080222
 20
15.85317396490706
 11
16.90223089082343
 21
15.89270619093759
  0
CIRCLE
  5
DD
100
AcDbEntity
  8
Station Marks
  6
ByLayer
 62
    5
370
   -1
100
AcDbCircle
 10
15.89579950582844
 20
15.87294007792235
 40
0.7744705207443496
  0
LINE
  5
DE
100
AcDbEntity
  8
Station Marks
  6
ByLayer
 62
  256
370
   -1
100
AcDbLine
 10
1.018074987693808
 20
14.59265808957127
 11
1.057607213724367
 21
12.57979531958128
  0
LINE
  5
DF
100
AcDbEntity
  8
Station Marks
  6
ByLayer
 62
    5
370
   -1
100
AcDbLine
 10
0.03140971571407647
 20
13.56646059156103
 11
2.04427248570407
 21
13.60599281759156
  0
CIRCLE
  5
E0
100
AcDbEntity
  8
Station Marks
  6
ByLayer
 62
    5
370
   -1
100
AcDbCircle
 10
1.037841100709073
 20
13.58622670457626
 40
0.7744705207443496
  0
LINE
  5
E1
100
AcDbEntity
  8
Station Marks
  6
ByLayer
 62
  256
370
   -1
100
AcDbLine
 10
0.5167780031320319
 20
15.60892648437408
 11
0.5563102291625626
 21
13.59606371438409
  0
LINE
  5
E2
100
AcDbEntity
  8
Station Marks
  6
ByLayer
 62
    5
370
   -1
100
AcDbLine
 10
-0.4698872688477138
 20
14.58272898636383
 11
1.542975501142294
 21
14.62226121239436
  0
CIRCLE
  5
E3
100
AcDbEntity
  8
Station Marks
  6
ByLayer
 62
    5
370
   -1
100
AcDbCircle
 10
0.5365441161472972
 20
14.60249509937907
 40
0.7744705207443496
  0
LINE
  5
E4
100
AcDbEntity
  8
Station Marks
  6
ByLayer
 62
    5
370
   -1
100
AcDbLine
 10
14.89332161825166
 20
27.15381459717366
 11
14.93285384428218
 21
25.1409518271837
  0
LINE
  5
E5
100
AcDbEntity
  8
Station Marks
  6
ByLayer
 62
    5
370
   -1
100
AcDbLine
 10
-15.90057740514618
 20
16.89697412741486
 11
-15.86104517911564
 21
14.88411135742487
  0
LINE
  5
E6
100
AcDbEntity
  8
Station Marks
  6
ByLayer
 62
    5
370
   -1
100
AcDbLine
 10
-16.88724267712593
 20
15.87077662940459
 11
-14.87437990713592
 21
15.91030885543512
  0
CIRCLE
  5
E7
100
AcDbEntity
  8
Station Marks
  6
ByLayer
 62
    5
370
   -1
100
AcDbCircle
 10
-15.88081129213091
 20
15.89054274241983
 40
0.7744705207443496
  0
LINE
  5
E8
100
AcDbEntity
  8
Station Marks
  6
ByLayer
 62
    5
370
   -1
100
AcDbLine
 10
-20.5956167492094
 20
23.20697398840014
 11
-20.55608452314767
 21
21.19411121841014
  0
LINE
  5
E9
100
AcDbEntity
  8
Station Marks
  6
ByLayer
 62
    5
370
   -1
100
AcDbLine
 10
-21.58228202118914
 20
22.18077649038989
 11
-19.56941925116791
 21
22.22030871642039
  0
CIRCLE
  5
EA
100
AcDbEntity
  8
Station Marks
  6
ByLayer
 62
    5
370
   -1
100
AcDbCircle
 10
-20.57585063619413
 20
22.20054260340515
 40
0.7744705207443496
  0
LINE
  5
EB
100
AcDbEntity
  8
Station Marks
  6
ByLayer
 62
    5
370
   -1
100
AcDbLine
 10
-32.95772200649103
 20
16.48768592560191
 11
-32.91818978046048
 21
14.47482315561189
  0
LINE
  5
EC
100
AcDbEntity
  8
Station Marks
  6
ByLayer
 62
    5
370
   -1
100
AcDbLine
 10
-33.94438727847078
 20
15.46148842759166
 11
-31.93152450848076
 21
15.50102065362219
  0
CIRCLE
  5
ED
100
AcDbEntity
  8
Station Marks
  6
ByLayer
 62
    5
370
   -1
100
AcDbCircle
 10
-32.93795589347577
 20
15.48125454060693
 40
0.7744705207443496
  0
LINE
  5
EE
100
AcDbEntity
  8
Station Marks
  6
ByLayer
 62
    3
370
   -1
100
AcDbLine
 10
-0.06809138477856891
 20
16.2167656937423
 11
-0.038284086350032
 21
14.69906716514186
  0
LINE
  5
EF
100
AcDbEntity
  8
Station Marks
  6
ByLayer
 62
    3
370
   -1
100
AcDbLine
 10
-0.8120369998645174
 20
15.4430127802278
 11
0.7056615287359591
 21
15.47282007865635
  0
CIRCLE
  5
F0
100
AcDbEntity
  8
Station Marks
  6
ByLayer
 62
    3
370
   -1
100
AcDbCircle
 10
-0.05318773556427914
 20
15.45791642950451
 40
0.5839507726412395
  0
LINE
  5
F1
100
AcDbEntity
  8
Station Marks
  6
ByLayer
 62
    3
370
   -1
100
AcDbLine
 10
15.80014398636064
 20
2.619514725640641
 11
15.82995128478915
 21
1.101816197040222
  0
LINE
  5
F2
100
AcDbEntity
  8
Station Marks
  6
ByLayer
 62
    3
370
   -1
100
AcDbLine
 10
15.05619837127469
 20
1.845761812126142
 11
16.57389689987515
 21
1.875569110554693
  0
CIRCLE
  5
F3
100
AcDbEntity
  8
Station Marks
  6
ByLayer
 62
    3
370
   -1
100
AcDbCircle
 10
15.81504763557489
 20
1.860665461402874
 40
0.5839507726412395
  0
LINE
  5
F4
100
AcDbEntity
  8
Station Marks
  6
ByLayer
 62
    3
370
   -1
100
AcDbLine
 10
-3.607931523642051
 20
-15.05225989525937
 11
-3.5781242252135
 21
-16.56995842385982
  0
LINE
  5
F5
100
AcDbEntity
  8
Station Marks
  6
ByLayer
 62
    3
370
   -1
100
AcDbLine
 10
-4.351877138728028
 20
-15.82601280877385
 11
-2.834178610127552
 21
-15.79620551034533
  0
CIRCLE
  5
F6
100
AcDbEntity
  8
Station Marks
  6
ByLayer
 62
    3
370
   -1
100
AcDbCircle
 10
-3.59302787442779
 20
-15.81110915949714
 40
0.5839507726412395
  0
LINE
  5
F7
100
AcDbEntity
  8
Station Marks
  6
ByLayer
 62
    3
370
   -1
100
AcDbLine
 10
-15.8291334569567
 20
2.109206239848561
 11
-15.79932615849697
 21
0.5915077113729978
  0
LINE
  5
F8
100
AcDbEntity
  8
Station Marks
  6
ByLayer
 62
    3
370
   -1
100
AcDbLine
 10
-16.57307907201145
 20
1.33545332633409
 11
-15.05538054344221
 21
1.365260624762584
  0
CIRCLE
  5
F9
100
AcDbEntity
  8
Station Marks
  6
ByLayer
 62
    3
370
   -1
100
AcDbCircle
 10
-15.81422980774245
 20
1.350356975610794
 40
0.5839507726412395
  0
LINE
  5
FA
100
AcDbEntity
  8
Station Marks
  6
ByLayer
 62
    1
370
   -1
100
AcDbLine
 10
15.80382073635479
 20
16.56419539316877
 11
15.83362803478335
 21
15.04649686456835
  0
LINE
  5
FB
100
AcDbEntity
  8
Station Marks
  6
ByLayer
 62
    1
370
   -1
100
AcDbLine
 10
15.05987512126885
 20
15.7904424796543
 11
16.57757364986929
 21
15.82024977808283
  0
CIRCLE
  5
FC
100
AcDbEntity
  8
Station Marks
  6
ByLayer
 62
    1
370
   -1
100
AcDbCircle
 10
15.81872438556907
 20
15.80534612880615
 40
0.5839507726412395
  0
LINE
  5
FD
100
AcDbEntity
  8
Station Marks
  6
ByLayer
 62
    1
370
   -1
100
AcDbLine
 10
15.79547238020368
 20
-15.05890345419135
 11
15.8252796786322
 21
-16.57660198279179
  0
LINE
  5
FE
100
AcDbEntity
  8
Station Marks
  6
ByLayer
 62
    1
370
   -1
100
AcDbLine
 10
15.05152676511771
 20
-15.83265636770581
 11
16.56922529371815
 21
-15.80284906927727
  0
CIRCLE
  5
FF
100
AcDbEntity
  8
Station Marks
  6
ByLayer
 62
    1
370
   -1
100
AcDbCircle
 10
15.81037602941792
 20
-15.81775271855396
 40
0.5839507726412395
  0
LINE
  5
100
100
AcDbEntity
  8
Station Marks
  6
ByLayer
 62
    1
370
   -1
100
AcDbLine
 10
-15.83386306609384
 20
-15.04807125390418
 11
-15.80405576763411
 21
-16.56576978250463
  0
LINE
  5
101
100
AcDbEntity
  8
Station Marks
  6
ByLayer
 62
    1
370
   -1
100
AcDbLine
 10
-16.5778086811486
 20
-15.82182416741867
 11
-15.06011015257937
 21
-15.79201686899015
  0
CIRCLE
  5
102
100
AcDbEntity
  8
Station Marks
  6
ByLayer
 62
    1
370
   -1
100
AcDbCircle
 10
-15.81895941687957
 20
-15.80692051826686
 40
0.5839507726412395
  0
LINE
  5
103
100
AcDbEntity
  8
Station Marks
  6
ByLayer
 62
    1
370
   -1
100
AcDbLine
 10
-15.82509848758833
 20
16.57820946189398
 11
-15.7952911891598
 21
15.06051093329356
  0
LINE
  5
104
100
AcDbEntity
  8
Station Marks
  6
ByLayer
 62
    1
370
   -1
100
AcDbLine
 10
-16.56904410267428
 20
15.80445654837953
 11
-15.05134557407385
 21
15.83426384680803
  0
CIRCLE
  5
105
100
AcDbEntity
  8
Station Marks
  6
ByLayer
 62
    1
370
   -1
100
AcDbCircle
 10
-15.81019483837407
 20
15.81936019765624
 40
0.5839507726412395
  0
LINE
  5
106
100
AcDbEntity
  8
Station Marks
  6
ByLayer
 62
    1
370
   -1
100
AcDbLine
 10
-0.0149037297903476
 20
0.7588533669955382
 11
0.01490356863816089
 21
-0.7588451616049099
  0
CIRCLE
  5
107
100
AcDbEntity
  8
Station Marks
  6
ByLayer
 62
    1
370
   -1
100
AcDbCircle
 10
-8.057610045852925e-08
 20
4.102632885860658e-06
 40
0.5839507726412395
  0
LINE
  5
108
100
AcDbEntity
  8
Station Marks
  6
ByLayer
 62
    1
370
   -1
100
AcDbLine
 10
-31.16195569098423
 20
-33.04821810384492
 11
-31.13214839255571
 21
-34.56591663244535
  0
LINE
  5
109
100
AcDbEntity
  8
Station Marks
  6
ByLayer
 62
    1
370
   -1
100
AcDbLine
 10
-31.90590130607018
 20
-33.82197101735937
 11
-30.38820277746974
 21
-33.79216371893087
  0
CIRCLE
  5
10A
100
AcDbEntity
  8
Station Marks
  6
ByLayer
 62
    1
370
   -1
100
AcDbCircle
 10
-31.14705204176995
 20
-33.80706736820757
 40
0.5839507726412395
  0
LINE
  5
10B
100
AcDbEntity
  8
Station Marks
  6
ByLayer
 62
    1
370
   -1
100
AcDbLine
 10
-31.14892512555346
 20
-62.60741090190577
 11
-31.11911782712497
 21
-64.1251094305062
  0
LINE
  5
10C
100
AcDbEntity
  8
Station Marks
  6
ByLayer
 62
    1
370
   -1
100
AcDbLine
 10
-31.8928707406082
 20
-63.38116381542025
 11
-30.37517221203899
 21
-63.35135651699171
  0
CIRCLE
  5
10D
100
AcDbEntity
  8
Station Marks
  6
ByLayer
 62
    1
370
   -1
100
AcDbCircle
 10
-31.13402147633921
 20
-63.36626016614355
 40
0.5839507726412395
  0
LINE
  5
10E
100
AcDbEntity
  8
Station Marks
  6
ByLayer
 62
    1
370
   -1
100
AcDbLine
 10
-60.71408913667551
 20
-62.61431773366367
 11
-60.68428183821574
 21
-64.1320162622641
  0
LINE
  5
10F
100
AcDbEntity
  8
Station Marks
  6
ByLayer
 62
    1
370
   -1
100
AcDbLine
 10
-61.45803475173022
 20
-63.38807064717813
 11
-59.94033622316103
 21
-63.35826334874962
  0
CIRCLE
  5
110
100
AcDbEntity
  8
Station Marks
  6
ByLayer
 62
    1
370
   -1
100
AcDbCircle
 10
-60.69918548746123
 20
-63.37316699790142
 40
0.5839507726412395
  0
LINE
  5
111
100
AcDbEntity
  8
Station Marks
  6
ByLayer
 62
    1
370
   -1
100
AcDbLine
 10
-60.70976897071046
 20
-33.05386220373617
 11
-60.67996167225069
 21
-34.57156073233661
  0
LINE
  5
112
100
AcDbEntity
  8
Station Marks
  6
ByLayer
 62
    1
370
   -1
100
AcDbLine
 10
-61.45371458576517
 20
-33.82761511725066
 11
-59.93601605719598
 21
-33.79780781882215
  0
CIRCLE
  5
113
100
AcDbEntity
  8
Station Marks
  6
ByLayer
 62
    1
370
   -1
100
AcDbCircle
 10
-60.69486532149618
 20
-33.81271146797395
 40
0.5839507726412395
  0
LINE
  5
114
100
AcDbEntity
  8
Station Marks
  6
ByLayer
 62
    1
370
   -1
100
AcDbLine
 10
-45.93367604337205
 20
-47.83094320006245
 11
-45.90386874494352
 21
-49.34864172866288
  0
LINE
  5
115
100
AcDbEntity
  8
Station Marks
  6
ByLayer
 62
    1
370
   -1
100
AcDbLine
 10
-46.67762165842677
 20
-48.60469611357694
 11
-45.15992312985757
 21
-48.57488881514844
  0
CIRCLE
  5
116
100
AcDbEntity
  8
Station Marks
  6
ByLayer
 62
    1
370
   -1
100
AcDbCircle
 10
-45.91877239415777
 20
-48.58979246442512
 40
0.5839507726412395
  0
CIRCLE
  5
117
100
AcDbEntity
  8
Station Marks
  6
ByLayer
 62
    1
370
   -1
100
AcDbCircle
 10
-78.8783596802953
 20
-101.5003465126196
 40
0.5839507726412395
  0
LINE
  5
118
100
AcDbEntity
  8
Station Marks
  6
ByLayer
 62
    1
370
   -1
100
AcDbLine
 10
-79.63720894309691
 20
-101.5152502383257
 11
-78.1195104174937
 21
-101.4854427867885
  0
LINE
  5
119
100
AcDbEntity
  8
Station Marks
  6
ByLayer
 62
    1
370
   -1
100
AcDbLine
 10
-78.8932634060327
 20
-100.7414972497555
 11
-78.86345595455791
 21
-102.2591957753587
  0
CIRCLE
  5
11A
100
AcDbEntity
  8
Station Marks
  6
ByLayer
 62
    1
370
   -1
100
AcDbCircle
 10
-86.09254105306755
 20
-94.2149324259689
 40
0.5839507726412395
  0
LINE
  5
11B
100
AcDbEntity
  8
Station Marks
  6
ByLayer
 62
    1
370
   -1
100
AcDbLine
 10
-86.85139031583793
 20
-94.22983615179996
 11
-85.33369179026596
 21
-94.20002870026271
  0
LINE
  5
11C
100
AcDbEntity
  8
Station Marks
  6
ByLayer
 62
    1
370
   -1
100
AcDbLine
 10
-86.10744477880496
 20
-93.45608316322975
 11
-86.07763732733015
 21
-94.97378168883293
  0
CIRCLE
  5
11D
100
AcDbEntity
  8
Station Marks
  6
ByLayer
 62
    1
370
   -1
100
AcDbCircle
 10
-86.16557986038576
 20
-108.7020104220174
 40
0.5839507726412395
  0
LINE
  5
11E
100
AcDbEntity
  8
Station Marks
  6
ByLayer
 62
    1
370
   -1
100
AcDbLine
 10
-86.92442912318737
 20
-108.7169141477236
 11
-85.40673059761539
 21
-108.6871066963113
  0
LINE
  5
11F
100
AcDbEntity
  8
Station Marks
  6
ByLayer
 62
    1
370
   -1
100
AcDbLine
 10
-86.18048358615439
 20
-107.9431611592783
 11
-86.15067613464836
 21
-109.4608596847566
  0
CIRCLE
  5
120
100
AcDbEntity
  8
Station Marks
  6
ByLayer
 62
    1
370
   -1
100
AcDbCircle
 10
-71.66433459718826
 20
-108.7778028384635
 40
0.5839507726412395
  0
LINE
  5
121
100
AcDbEntity
  8
Station Marks
  6
ByLayer
 62
    1
370
   -1
100
AcDbLine
 10
-72.42318385995863
 20
-108.7927065642945
 11
-70.90548533438665
 21
-108.7628991127573
  0
LINE
  5
122
100
AcDbEntity
  8
Station Marks
  6
ByLayer
 62
    1
370
   -1
100
AcDbLine
 10
-71.67923832292566
 20
-108.0189535757243
 11
-71.64943087141961
 21
-109.5366521013275
  0
CIRCLE
  5
123
100
AcDbEntity
  8
Station Marks
  6
ByLayer
 62
    1
370
   -1
100
AcDbCircle
 10
-71.5910012819275
 20
-94.30662298856095
 40
0.5839507726412395
  0
LINE
  5
124
100
AcDbEntity
  8
Station Marks
  6
ByLayer
 62
    1
370
   -1
100
AcDbLine
 10
-72.34985054472912
 20
-94.32152671426711
 11
-70.83215201912591
 21
-94.29171926272988
  0
LINE
  5
125
100
AcDbEntity
  8
Station Marks
  6
ByLayer
 62
    1
370
   -1
100
AcDbLine
 10
-71.60590500766492
 20
-93.54777372569689
 11
-71.57609755619011
 21
-95.06547225130009
  0
CIRCLE
  5
126
100
AcDbEntity
  8
Station Marks
  6
ByLayer
 62
    1
370
   -1
100
AcDbCircle
 10
-45.91876248339626
 20
-48.58980110083122
 40
0.5839507726412395
  0
LINE
  5
127
100
AcDbEntity
  8
Station Marks
  6
ByLayer
 62
    1
370
   -1
100
AcDbLine
 10
-46.67761174619787
 20
-48.60470482653743
 11
-45.15991322059469
 21
-48.57489737512508
  0
LINE
  5
128
100
AcDbEntity
  8
Station Marks
  6
ByLayer
 62
    1
370
   -1
100
AcDbLine
 10
-45.93366620913367
 20
-47.83095183796721
 11
-45.90385875765887
 21
-49.34865036357039
  0
CIRCLE
  5
129
100
AcDbEntity
  8
Station Marks
  6
ByLayer
 62
    1
370
   -1
100
AcDbCircle
 10
-60.69485690089094
 20
-33.81272159450513
 40
0.5839507726412395
  0
LINE
  5
12A
100
AcDbEntity
  8
Station Marks
  6
ByLayer
 62
    1
370
   -1
100
AcDbLine
 10
-61.45370616369254
 20
-33.82762532021128
 11
-59.93600763812057
 21
-33.79781786879893
  0
LINE
  5
12B
100
AcDbEntity
  8
Station Marks
  6
ByLayer
 62
    1
370
   -1
100
AcDbLine
 10
-60.70976062665955
 20
-33.05387233176597
 11
-60.67995317515354
 21
-34.57157085736918
  0
CIRCLE
  5
12C
100
AcDbEntity
  8
Station Marks
  6
ByLayer
 62
    1
370
   -1
100
AcDbCircle
 10
-60.6991740858878
 20
-63.37317712480724
 40
0.5839507726412395
  0
LINE
  5
12D
100
AcDbEntity
  8
Station Marks
  6
ByLayer
 62
    1
370
   -1
100
AcDbLine
 10
-61.45802334868942
 20
-63.38808085063832
 11
-59.94032482311744
 21
-63.35827339910107
  0
LINE
  5
12E
100
AcDbEntity
  8
Station Marks
  6
ByLayer
 62
    1
370
   -1
100
AcDbLine
 10
-60.71407781165645
 20
-62.61432786206807
 11
-60.68427036015041
 21
-64.13202638767129
  0
CIRCLE
  5
12F
100
AcDbEntity
  8
Station Marks
  6
ByLayer
 62
    1
370
   -1
100
AcDbCircle
 10
-31.13401007548386
 20
-63.36626731167529
 40
0.5839507726412395
  0
LINE
  5
130
100
AcDbEntity
  8
Station Marks
  6
ByLayer
 62
    1
370
   -1
100
AcDbLine
 10
-31.89285933825424
 20
-63.38117103738146
 11
-30.37516081268228
 21
-63.3513635859691
  0
LINE
  5
131
100
AcDbEntity
  8
Station Marks
  6
ByLayer
 62
    1
370
   -1
100
AcDbLine
 10
-31.14891380122128
 20
-62.60741804893614
 11
-31.11910634974647
 21
-64.12511657441443
  0
CIRCLE
  5
132
100
AcDbEntity
  8
Station Marks
  6
ByLayer
 62
    1
370
   -1
100
AcDbCircle
 10
-31.14704362175794
 20
-33.80707451498817
 40
0.5839507726412395
  0
LINE
  5
133
100
AcDbEntity
  8
Station Marks
  6
ByLayer
 62
    1
370
   -1
100
AcDbLine
 10
-31.90589288452831
 20
-33.82197824069434
 11
-30.38819435895633
 21
-33.79217078928198
  0
LINE
  5
134
100
AcDbEntity
  8
Station Marks
  6
ByLayer
 62
    1
370
   -1
100
AcDbLine
 10
-31.16194734749534
 20
-33.04822525212413
 11
-31.13213989602055
 21
-34.56592377772731
  0
CIRCLE
  5
135
100
AcDbEntity
  8
Station Marks
  6
ByLayer
 62
    1
370
   -1
100
AcDbCircle
 10
4.930237906819457e-06
 20
9.68290692071605e-08
 40
0.5839507726412395
  0
LINE
  5
136
100
AcDbEntity
  8
Station Marks
  6
ByLayer
 62
    1
370
   -1
100
AcDbLine
 10
-0.01489879553074047
 20
0.7588493596931016
 11
0.01490865597527602
 21
-0.7588491659101209
  0
CIRCLE
  5
137
100
AcDbEntity
  8
Station Marks
  6
ByLayer
 62
    1
370
   -1
100
AcDbCircle
 10
-15.81019142283813
 20
15.81935459744858
 40
0.5839507726412395
  0
LINE
  5
138
100
AcDbEntity
  8
Station Marks
  6
ByLayer
 62
    1
370
   -1
100
AcDbLine
 10
-16.56904068563973
 20
15.8044508717424
 11
-15.05134216006773
 21
15.83425832315476
  0
LINE
  5
139
100
AcDbEntity
  8
Station Marks
  6
ByLayer
 62
    1
370
   -1
100
AcDbLine
 10
-15.82509514860675
 20
16.57820386018773
 11
-15.79528769710072
 21
15.06050533458455
  0
CIRCLE
  5
13A
100
AcDbEntity
  8
Station Marks
  6
ByLayer
 62
    1
370
   -1
100
AcDbCircle
 10
-15.81895281203641
 20
-15.80692611934866
 40
0.5839507726412395
  0
LINE
  5
13B
100
AcDbEntity
  8
Station Marks
  6
ByLayer
 62
    1
370
   -1
100
AcDbLine
 10
-16.57780207483803
 20
-15.82182984505486
 11
-15.06010354926603
 21
-15.79202239351761
  0
LINE
  5
13C
100
AcDbEntity
  8
Station Marks
  6
ByLayer
 62
    1
370
   -1
100
AcDbLine
 10
-15.83385653780505
 20
-15.0480768564846
 11
-15.80404908629902
 21
-16.56577538208782
  0
CIRCLE
  5
13D
100
AcDbEntity
  8
Station Marks
  6
ByLayer
 62
    1
370
   -1
100
AcDbCircle
 10
15.8103826353226
 20
-15.81775512995395
 40
0.5839507726412395
  0
LINE
  5
13E
100
AcDbEntity
  8
Station Marks
  6
ByLayer
 62
    1
370
   -1
100
AcDbLine
 10
15.05153337255221
 20
-15.83265885566014
 11
16.5692318981242
 21
-15.80285140424779
  0
LINE
  5
13F
100
AcDbEntity
  8
Station Marks
  6
ByLayer
 62
    1
370
   -1
100
AcDbLine
 10
15.79547890958521
 20
-15.05890586721482
 11
15.82528636105999
 21
-16.57660439269311
  0
CIRCLE
  5
140
100
AcDbEntity
  8
Station Marks
  6
ByLayer
 62
    1
370
   -1
100
AcDbCircle
 10
15.81872780250998
 20
15.80534371828034
 40
0.5839507726412395
  0
LINE
  5
141
100
AcDbEntity
  8
Station Marks
  6
ByLayer
 62
    1
370
   -1
100
AcDbLine
 10
15.05987853970841
 20
15.79043999244928
 11
16.57757706528037
 21
15.82024744398652
  0
LINE
  5
142
100
AcDbEntity
  8
Station Marks
  6
ByLayer
 62
    1
370
   -1
100
AcDbLine
 10
15.80382407677259
 20
16.56419298101952
 11
15.83363152824739
 21
15.04649445541631
  0
CIRCLE
  5
143
100
AcDbEntity
  8
Station Marks
  6
ByLayer
 62
    3
370
   -1
100
AcDbCircle
 10
-15.81422493311533
 20
1.350351375028481
 40
0.5839507726412395
  0
LINE
  5
144
100
AcDbEntity
  8
Station Marks
  6
ByLayer
 62
    3
370
   -1
100
AcDbLine
 10
-16.5730741958857
 20
1.335447649322276
 11
-15.05537567031371
 21
1.365255100734657
  0
LINE
  5
145
100
AcDbEntity
  8
Station Marks
  6
ByLayer
 62
    3
370
   -1
100
AcDbLine
 10
-15.82912865885272
 20
2.109200637767657
 11
-15.79932120737791
 21
0.5915021122893336
  0
CIRCLE
  5
146
100
AcDbEntity
  8
Station Marks
  6
ByLayer
 62
    3
370
   -1
100
AcDbCircle
 10
-3.593021269178763
 20
-15.81111352771654
 40
0.5839507726412395
  0
LINE
  5
147
100
AcDbEntity
  8
Station Marks
  6
ByLayer
 62
    3
370
   -1
100
AcDbLine
 10
-4.351870531980339
 20
-15.82601725342275
 11
-2.834172006377159
 21
-15.7962098018855
  0
LINE
  5
148
100
AcDbEntity
  8
Station Marks
  6
ByLayer
 62
    3
370
   -1
100
AcDbLine
 10
-3.607924994916161
 20
-15.05226426485252
 11
-3.578117543441365
 21
-16.56996279045572
  0
CIRCLE
  5
149
100
AcDbEntity
  8
Station Marks
  6
ByLayer
 62
    3
370
   -1
100
AcDbCircle
 10
15.81505245874951
 20
1.860663050377553
 40
0.5839507726412395
  0
LINE
  5
14A
100
AcDbEntity
  8
Station Marks
  6
ByLayer
 62
    3
370
   -1
100
AcDbLine
 10
15.0562031959479
 20
1.845759324671377
 11
16.57390172151995
 21
1.87556677608373
  0
LINE
  5
14B
100
AcDbEntity
  8
Station Marks
  6
ByLayer
 62
    3
370
   -1
100
AcDbLine
 10
15.8001487329809
 20
2.619512313116729
 11
15.82995618448692
 21
1.101813787638406
  0
CIRCLE
  5
14C
100
AcDbEntity
  8
Station Marks
  6
ByLayer
 62
    3
370
   -1
100
AcDbCircle
 10
-0.05318428359319682
 20
15.45791241833066
 40
0.5839507726412395
  0
LINE
  5
14D
100
AcDbEntity
  8
Station Marks
  6
ByLayer
 62
    3
370
   -1
100
AcDbLine
 10
-0.812033546394801
 20
15.44300869249957
 11
0.7056649792084073
 21
15.47281614403681
  0
LINE
  5
14E
100
AcDbEntity
  8
Station Marks
  6
ByLayer
 62
    3
370
   -1
100
AcDbLine
 10
-0.06808800933059445
 20
16.21676168106981
 11
-0.0382805578557992
 21
14.6990631554666
  0
CIRCLE
  5
14F
100
AcDbEntity
  8
Station Marks
  6
ByLayer
 62
  256
370
   -1
100
AcDbCircle
 10
-32.93795244384627
 20
15.48124721324294
 40
0.7744705207443496
  0
LINE
  5
150
100
AcDbEntity
  8
Station Marks
  6
ByLayer
 62
  256
370
   -1
100
AcDbLine
 10
-33.94438382687434
 20
15.46148099869637
 11
-31.93152106084942
 21
15.50101342766465
  0
LINE
  5
151
100
AcDbEntity
  8
Station Marks
  6
ByLayer
 62
  256
370
   -1
100
AcDbLine
 10
-32.95771865836164
 20
16.48767859623979
 11
-32.91818622936212
 21
14.47481583024611
  0
CIRCLE
  5
152
100
AcDbEntity
  8
Station Marks
  6
ByLayer
 62
  256
370
   -1
100
AcDbCircle
 10
0.3009321329116403
 20
32.81296995151746
 40
0.7744705207443496
  0
LINE
  5
153
100
AcDbEntity
  8
Station Marks
  6
ByLayer
 62
  256
370
   -1
100
AcDbLine
 10
-0.7054992501164037
 20
32.79320373697087
 11
1.307363515908477
 21
32.83273616606402
  0
LINE
  5
154
100
AcDbEntity
  8
Station Marks
  6
ByLayer
 62
  256
370
   -1
100
AcDbLine
 10
0.2811659183962689
 20
33.81940133451431
 11
0.3206983474269975
 21
31.80653856852061
  0
CIRCLE
  5
155
100
AcDbEntity
  8
Station Marks
  6
ByLayer
 62
  256
370
   -1
100
AcDbCircle
 10
-20.57584786415816
 20
22.2005365226409
 40
0.7744705207443496
  0
LINE
  5
156
100
AcDbEntity
  8
Station Marks
  6
ByLayer
 62
  256
370
   -1
100
AcDbLine
 10
-21.58227924718624
 20
22.18077030809434
 11
-19.56941648116133
 21
22.22030273718752
  0
LINE
  5
157
100
AcDbEntity
  8
Station Marks
  6
ByLayer
 62
  256
370
   -1
100
AcDbLine
 10
-20.59561407867353
 20
23.20696790563778
 11
-20.55608164964282
 21
21.19410513964408
  0
CIRCLE
  5
158
100
AcDbEntity
  8
Station Marks
  6
ByLayer
 62
  256
370
   -1
100
AcDbCircle
 10
-15.88080788377583
 20
15.89053713509378
 40
0.7744705207443496
  0
LINE
  5
159
100
AcDbEntity
  8
Station Marks
  6
ByLayer
 62
  256
370
   -1
100
AcDbLine
 10
-16.88723926680392
 20
15.87077092067207
 11
-14.87437650077899
 21
15.91030334964037
  0
LINE
  5
15A
100
AcDbEntity
  8
Station Marks
  6
ByLayer
 62
  256
370
   -1
100
AcDbLine
 10
-15.90057409829122
 20
16.89696851809063
 11
-15.86104166926049
 21
14.88410575209693
  0
CIRCLE
  5
15B
100
AcDbEntity
  8
Station Marks
  6
ByLayer
 62
  256
370
   -1
100
AcDbCircle
 10
14.91309010529514
 20
26.14738071023723
 40
0.7744705207443496
  0
LINE
  5
15C
100
AcDbEntity
  8
Station Marks
  6
ByLayer
 62
  256
370
   -1
100
AcDbLine
 10
13.90665872226707
 20
26.12761449581552
 11
15.91952148829198
 21
26.16714692478382
  0
CIRCLE
  5
15D
100
AcDbEntity
  8
Station Marks
  6
ByLayer
 62
  256
370
   -1
100
AcDbCircle
 10
0.5365476543825167
 20
14.6024911476504
 40
0.7744705207443496
  0
LINE
  5
15E
100
AcDbEntity
  8
Station Marks
  6
ByLayer
 62
  256
370
   -1
100
AcDbLine
 10
-0.4698837286143203
 20
14.58272493322869
 11
1.542979037410589
 21
14.62225736219696
  0
LINE
  5
15F
100
AcDbEntity
  8
Station Marks
  6
ByLayer
 62
  256
370
   -1
100
AcDbLine
 10
0.5167814398671595
 20
15.60892253064722
 11
0.5563138688978881
 21
13.59605976465352
  0
CIRCLE
  5
160
100
AcDbEntity
  8
Station Marks
  6
ByLayer
 62
  256
370
   -1
100
AcDbCircle
 10
1.037844741443493
 20
13.5862228034259
 40
0.7744705207443496
  0
LINE
  5
161
100
AcDbEntity
  8
Station Marks
  6
ByLayer
 62
  256
370
   -1
100
AcDbLine
 10
0.03141335841542059
 20
13.5664565888793
 11
2.044276124440344
 21
13.60598901797249
  0
LINE
  5
162
100
AcDbEntity
  8
Station Marks
  6
ByLayer
 62
  256
370
   -1
100
AcDbLine
 10
1.018078526928122
 20
14.59265418642275
 11
1.057610955958864
 21
12.57979142042905
  0
CIRCLE
  5
163
100
AcDbEntity
  8
Station Marks
  6
ByLayer
 62
  256
370
   -1
100
AcDbCircle
 10
15.8958029159319
 20
15.87293767513938
 40
0.7744705207443496
  0
LINE
  5
164
100
AcDbEntity
  8
Station Marks
  6
ByLayer
 62
  256
370
   -1
100
AcDbLine
 10
14.88937153293509
 20
15.85317146059279
 11
16.90223429895995
 21
15.89270388956112
  0
LINE
  5
165
100
AcDbEntity
  8
Station Marks
  6
ByLayer
 62
  256
370
   -1
100
AcDbLine
 10
15.87603670141652
 20
16.87936905813623
 11
15.91556913044725
 21
14.86650629201768
  0
CIRCLE
  5
166
100
AcDbEntity
  8
Station Marks
  6
ByLayer
 62
  256
370
   -1
100
AcDbCircle
 10
19.5310124449646
 20
12.36750881088915
 40
0.7744705207443496
  0
LINE
  5
167
100
AcDbEntity
  8
Station Marks
  6
ByLayer
 62
  256
370
   -1
100
AcDbLine
 10
18.52458106196778
 20
12.34774259634253
 11
20.53744382799267
 21
12.38727502531086
  0
LINE
  5
168
100
AcDbEntity
  8
Station Marks
  6
ByLayer
 62
  256
370
   -1
100
AcDbLine
 10
19.51124623048051
 20
13.37394019388597
 11
19.55077865947997
 21
11.36107742789227
  0
CIRCLE
  5
169
100
AcDbEntity
  8
Station Marks
  6
ByLayer
 62
  256
370
   -1
100
AcDbCircle
 10
19.76730410739825
 20
4.711987038481823
 40
0.7744705207443496
  0
LINE
  5
16A
100
AcDbEntity
  8
Station Marks
  6
ByLayer
 62
  256
370
   -1
100
AcDbLine
 10
18.7608727243702
 20
4.692220823935259
 11
20.77373549039511
 21
4.731753253028415
  0
LINE
  5
16B
100
AcDbEntity
  8
Station Marks
  6
ByLayer
 62
  256
370
   -1
100
AcDbLine
 10
19.7475378928829
 20
5.718418421478674
 11
19.78707032191362
 21
3.705555655485
  0
CIRCLE
  5
16C
100
AcDbEntity
  8
Station Marks
  6
ByLayer
 62
  256
370
   -1
100
AcDbCircle
 10
14.4719915356153
 20
1.211745002301427
 40
0.7744705207443496
  0
LINE
  5
16D
100
AcDbEntity
  8
Station Marks
  6
ByLayer
 62
  256
370
   -1
100
AcDbLine
 10
13.46556015261845
 20
1.191978787879719
 11
15.47842291864335
 21
1.23151121684802
  0
LINE
  5
16E
100
AcDbEntity
  8
Station Marks
  6
ByLayer
 62
  256
370
   -1
100
AcDbLine
 10
14.45222532109993
 20
2.218176385298278
 11
14.49175775013067
 21
0.2053136193046043
  0
CIRCLE
  5
16F
100
AcDbEntity
  8
Station Marks
  6
ByLayer
 62
  256
370
   -1
100
AcDbCircle
 10
24.5403994176235
 20
-3.93382517405685
 40
0.7744705207443496
  0
LINE
  5
170
100
AcDbEntity
  8
Station Marks
  6
ByLayer
 62
  256
370
   -1
100
AcDbLine
 10
23.53396803459546
 20
-3.953591388603442
 11
25.54683080062038
 21
-3.91405895963517
  0
LINE
  5
171
100
AcDbEntity
  8
Station Marks
  6
ByLayer
 62
  256
370
   -1
100
AcDbLine
 10
24.52063320310819
 20
-2.927393791060041
 11
24.56016563213889
 21
-4.940256557053701
  0
CIRCLE
  5
172
100
AcDbEntity
  8
Station Marks
  6
ByLayer
 62
  256
370
   -1
100
AcDbCircle
 10
19.78995597779453
 20
-4.811770497852734
 40
0.7744705207443496
  0
LINE
  5
173
100
AcDbEntity
  8
Station Marks
  6
ByLayer
 62
  256
370
   -1
100
AcDbLine
 10
18.78352459476646
 20
-4.831536712399313
 11
20.79638736079136
 21
-4.792004283430998
  0
LINE
  5
174
100
AcDbEntity
  8
Station Marks
  6
ByLayer
 62
  256
370
   -1
100
AcDbLine
 10
19.77018976327916
 20
-3.805339114855897
 11
19.80972219230989
 21
-5.818201880849585
  0
CIRCLE
  5
175
100
AcDbEntity
  8
Station Marks
  6
ByLayer
 62
  256
370
   -1
100
AcDbCircle
 10
-0.05713300757214768
 20
0.0348878152610439
 40
0.7744705207443496
  0
LINE
  5
176
100
AcDbEntity
  8
Station Marks
  6
ByLayer
 62
  256
370
   -1
100
AcDbLine
 10
-1.063564390569027
 20
0.01512160071447965
 11
0.9492983754558963
 21
0.05465402980763656
  0
LINE
  5
177
100
AcDbEntity
  8
Station Marks
  6
ByLayer
 62
  256
370
   -1
100
AcDbLine
 10
-0.0768992220875333
 20
1.041319198257895
 11
-0.03736679305680468
 21
-0.9715435677357789
  0
CIRCLE
  5
178
100
AcDbEntity
  8
Station Marks
  6
ByLayer
 62
  256
370
   -1
100
AcDbCircle
 10
-13.79151480158785
 20
-0.04819125797507695
 40
0.7744705207443496
  0
LINE
  5
179
100
AcDbEntity
  8
Station Marks
  6
ByLayer
 62
  256
370
   -1
100
AcDbLine
 10
-14.79794618458473
 20
-0.06795747252166962
 11
-12.78508341855981
 21
-0.02842504342851271
  0
LINE
  5
17A
100
AcDbEntity
  8
Station Marks
  6
ByLayer
 62
  256
370
   -1
100
AcDbLine
 10
-13.81128101610324
 20
0.9582401250217742
 11
-13.77174858707251
 21
-1.054622640971928
  0
CIRCLE
  5
17B
100
AcDbEntity
  8
Station Marks
  6
ByLayer
 62
  256
370
   -1
100
AcDbCircle
 10
-12.40239110377811
 20
-4.525143144337164
 40
0.7744705207443496
  0
LINE
  5
17C
100
AcDbEntity
  8
Station Marks
  6
ByLayer
 62
  256
370
   -1
100
AcDbLine
 10
-13.40882248677494
 20
-4.544909358883743
 11
-11.39595972075006
 21
-4.505376929790557
  0
LINE
  5
17D
100
AcDbEntity
  8
Station Marks
  6
ByLayer
 62
  256
370
   -1
100
AcDbLine
 10
-12.42215731829346
 20
-3.518711761340327
 11
-12.38262488926276
 21
-5.531574527334016
  0
CIRCLE
  5
17E
100
AcDbEntity
  8
Station Marks
  6
ByLayer
 62
  256
370
   -1
100
AcDbCircle
 10
-27.74007956347928
 20
-3.517375797545398
 40
0.7744705207443496
  0
LINE
  5
17F
100
AcDbEntity
  8
Station Marks
  6
ByLayer
 62
  256
370
   -1
100
AcDbLine
 10
-28.74651094647612
 20
-3.537142012091991
 11
-26.73364818045121
 21
-3.497609583123719
  0
LINE
  5
180
100
AcDbEntity
  8
Station Marks
  6
ByLayer
 62
  256
370
   -1
100
AcDbLine
 10
-27.75984577799466
 20
-2.51094441454859
 11
-27.72031334896394
 21
-4.523807180542249
  0
CIRCLE
  5
181
100
AcDbEntity
  8
Station Marks
  6
ByLayer
 62
  256
370
   -1
100
AcDbCircle
 10
-15.84850216216353
 20
-15.83706259891399
 40
0.7744705207443496
  0
LINE
  5
182
100
AcDbEntity
  8
Station Marks
  6
ByLayer
 62
  256
370
   -1
100
AcDbLine
 10
-16.85493354519159
 20
-15.85682881346057
 11
-14.8420707791667
 21
-15.8172963843674
  0
LINE
  5
183
100
AcDbEntity
  8
Station Marks
  6
ByLayer
 62
  256
370
   -1
100
AcDbLine
 10
-15.8682683766789
 20
-14.83063121591712
 11
-15.82873594767941
 21
-16.84349398191081
  0
CIRCLE
  5
184
100
AcDbEntity
  8
Station Marks
  6
ByLayer
 62
  256
370
   -1
100
AcDbCircle
 10
-1.050688767484132
 20
-13.57631569208957
 40
0.7744705207443496
  0
LINE
  5
185
100
AcDbEntity
  8
Station Marks
  6
ByLayer
 62
  256
370
   -1
100
AcDbLine
 10
-2.057120150512205
 20
-13.59608190663612
 11
-0.04425738448729533
 21
-13.55654947754296
  0
LINE
  5
186
100
AcDbEntity
  8
Station Marks
  6
ByLayer
 62
  256
370
   -1
100
AcDbLine
 10
-1.07045498199949
 20
-12.56988430909269
 11
-1.030922552968761
 21
-14.58274707508637
  0
CIRCLE
  5
187
100
AcDbEntity
  8
Station Marks
  6
ByLayer
 62
  256
370
   -1
100
AcDbCircle
 10
20.00087778064979
 20
-12.11531546960728
 40
0.7744705207443496
  0
LINE
  5
188
100
AcDbEntity
  8
Station Marks
  6
ByLayer
 62
  256
370
   -1
100
AcDbLine
 10
18.99444639765295
 20
-12.13508168415386
 11
21.00730916367786
 21
-12.09554925506073
  0
LINE
  5
189
100
AcDbEntity
  8
Station Marks
  6
ByLayer
 62
  256
370
   -1
100
AcDbLine
 10
19.98111156613442
 20
-11.10888408661044
 11
20.02064399516514
 21
-13.12174685260413
  0
CIRCLE
  5
18A
100
AcDbEntity
  8
Station Marks
  6
ByLayer
 62
  256
370
   -1
100
AcDbCircle
 10
15.88683090223486
 20
-15.89337977595321
 40
0.7744705207443496
  0
LINE
  5
18B
100
AcDbEntity
  8
Station Marks
  6
ByLayer
 62
  256
370
   -1
100
AcDbLine
 10
14.8803995192068
 20
-15.91314599049976
 11
16.8932622852317
 21
-15.87361356140661
  0
LINE
  5
18C
100
AcDbEntity
  8
Station Marks
  6
ByLayer
 62
  256
370
   -1
100
AcDbLine
 10
15.86706468771948
 20
-14.88694839295634
 11
15.90659711675021
 21
-16.89981115895004
  0
CIRCLE
  5
18D
100
AcDbEntity
  8
Station Marks
  6
ByLayer
 62
  256
370
   -1
100
AcDbCircle
 10
24.53567863871369
 20
-21.30180744048293
 40
0.7744705207443496
  0
LINE
  5
18E
100
AcDbEntity
  8
Station Marks
  6
ByLayer
 62
  256
370
   -1
100
AcDbLine
 10
23.52924725568562
 20
-21.32157365490465
 11
25.54211002171051
 21
-21.28204122593637
  0
LINE
  5
18F
100
AcDbEntity
  8
Station Marks
  6
ByLayer
 62
  256
370
   -1
100
AcDbLine
 10
24.51591242419832
 20
-20.29537605748608
 11
24.55544485322902
 21
-22.3082388234798
  0
CIRCLE
  5
190
100
AcDbEntity
  8
Station Marks
  6
ByLayer
 62
  256
370
   -1
100
AcDbCircle
 10
-16.4766251700929
 20
-27.76807360622655
 40
0.7744705207443496
  0
LINE
  5
191
100
AcDbEntity
  8
Station Marks
  6
ByLayer
 62
  256
370
   -1
100
AcDbLine
 10
-17.48305655308974
 20
-27.78783982064824
 11
-15.47019378706486
 21
-27.74830739168
  0
LINE
  5
192
100
AcDbEntity
  8
Station Marks
  6
ByLayer
 62
  256
370
   -1
100
AcDbLine
 10
-16.49639138460826
 20
-26.76164222310484
 11
-16.45685895557756
 21
-28.77450498922339
  0
CIRCLE
  5
193
100
AcDbEntity
  8
Station Marks
  6
ByLayer
 62
  256
370
   -1
100
AcDbCircle
 10
11.05707490661592
 20
-29.15330340072387
 40
0.7744705207443496
  0
LINE
  5
194
100
AcDbEntity
  8
Station Marks
  6
ByLayer
 62
  256
370
   -1
100
AcDbLine
 10
10.05064352358788
 20
-29.17306961527045
 11
12.06350628961279
 21
-29.13353718617728
  0
LINE
  5
195
100
AcDbEntity
  8
Station Marks
  6
ByLayer
 62
  256
370
   -1
100
AcDbLine
 10
11.03730869210058
 20
-28.14687201772701
 11
11.07684112113132
 21
-30.15973478372071
  0
CIRCLE
  5
196
100
AcDbEntity
  8
Station Marks
  6
ByLayer
 62
  256
370
   -1
100
AcDbCircle
 10
-31.19116201546775
 20
-33.83295821487926
 40
0.7744705207443496
  0
LINE
  5
197
100
AcDbEntity
  8
Station Marks
  6
ByLayer
 62
  256
370
   -1
100
AcDbLine
 10
-32.19759339849581
 20
-33.85272442942585
 11
-30.18473063247092
 21
-33.81319200033266
  0
LINE
  5
198
100
AcDbEntity
  8
Station Marks
  6
ByLayer
 62
  256
370
   -1
100
AcDbLine
 10
-31.21092822998311
 20
-32.82652683188242
 11
-31.17139580095237
 21
-34.83938959787612
  0
CIRCLE
  5
199
100
AcDbEntity
  8
Station Marks
  6
ByLayer
 62
  256
370
   -1
100
AcDbCircle
 10
-45.49071938201286
 20
-35.89709700068059
 40
0.7744705207443496
  0
LINE
  5
19A
100
AcDbEntity
  8
Station Marks
  6
ByLayer
 62
  256
370
   -1
100
AcDbLine
 10
-46.49715076500973
 20
-35.91686321522717
 11
-44.48428799898478
 21
-35.877330786134
  0
LINE
  5
19B
100
AcDbEntity
  8
Station Marks
  6
ByLayer
 62
  256
370
   -1
100
AcDbLine
 10
-45.51048559652824
 20
-34.89066561768375
 11
-45.47095316749751
 21
-36.90352838367743
  0
CIRCLE
  5
19C
100
AcDbEntity
  8
Station Marks
  6
ByLayer
 62
  256
370
   -1
100
AcDbCircle
 10
-60.74593889329181
 20
-33.71695376891314
 40
0.7744705207443496
  0
LINE
  5
19D
100
AcDbEntity
  8
Station Marks
  6
ByLayer
 62
  256
370
   -1
100
AcDbLine
 10
-61.75237027631989
 20
-33.73671998345974
 11
-59.73950751029498
 21
-33.69718755449145
  0
LINE
  5
19E
100
AcDbEntity
  8
Station Marks
  6
ByLayer
 62
  256
370
   -1
100
AcDbLine
 10
-60.76570510780719
 20
-32.71052238591632
 11
-60.72617267877646
 21
-34.72338515203488
  0
CIRCLE
  5
19F
100
AcDbEntity
  8
Station Marks
  6
ByLayer
 62
  256
370
   -1
100
AcDbCircle
 10
-64.61024751936787
 20
-25.88598881366521
 40
0.7744705207443496
  0
LINE
  5
1A0
100
AcDbEntity
  8
Station Marks
  6
ByLayer
 62
  256
370
   -1
100
AcDbLine
 10
-65.61667890239596
 20
-25.90575502821176
 11
-63.60381613637104
 21
-25.86622259911861
  0
LINE
  5
1A1
100
AcDbEntity
  8
Station Marks
  6
ByLayer
 62
  256
370
   -1
100
AcDbLine
 10
-64.63001373388323
 20
-24.87955743066837
 11
-64.5904813048525
 21
-26.89242019666204
  0
CIRCLE
  5
1A2
100
AcDbEntity
  8
Station Marks
  6
ByLayer
 62
  256
370
   -1
100
AcDbCircle
 10
-102.941479551539
 20
-28.40948349814191
 40
0.7744705207443496
  0
LINE
  5
1A3
100
AcDbEntity
  8
Station Marks
  6
ByLayer
 62
  256
370
   -1
100
AcDbLine
 10
-103.9479109345671
 20
-28.42924971268849
 11
-101.9350481685422
 21
-28.38971728359532
  0
LINE
  5
1A4
100
AcDbEntity
  8
Station Marks
  6
ByLayer
 62
  256
370
   -1
100
AcDbLine
 10
-102.9612457660544
 20
-27.40305211514506
 11
-102.9217133370237
 21
-29.41591488113876
  0
CIRCLE
  5
1A5
100
AcDbEntity
  8
Station Marks
  6
ByLayer
 62
  256
370
   -1
100
AcDbCircle
 10
-64.56300196483457
 20
-57.85609158469371
 40
0.7744705207443496
  0
LINE
  5
1A6
100
AcDbEntity
  8
Station Marks
  6
ByLayer
 62
  256
370
   -1
100
AcDbLine
 10
-65.56943334783141
 20
-57.87585779924031
 11
-63.55657058180652
 21
-57.83632537014714
  0
LINE
  5
1A7
100
AcDbEntity
  8
Station Marks
  6
ByLayer
 62
  256
370
   -1
100
AcDbLine
 10
-64.58276817934996
 20
-56.84966020169689
 11
-64.54323575031921
 21
-58.86252296769059
  0
CIRCLE
  5
1A8
100
AcDbEntity
  8
Station Marks
  6
ByLayer
 62
  256
370
   -1
100
AcDbCircle
 10
-60.6266342223462
 20
-63.31118631150524
 40
0.7744705207443496
  0
LINE
  5
1A9
100
AcDbEntity
  8
Station Marks
  6
ByLayer
 62
  256
370
   -1
100
AcDbLine
 10
-61.63306560537429
 20
-63.33095252605182
 11
-59.62020283934937
 21
-63.29142009708353
  0
LINE
  5
1AA
100
AcDbEntity
  8
Station Marks
  6
ByLayer
 62
  256
370
   -1
100
AcDbLine
 10
-60.64640043686159
 20
-62.30475492850836
 11
-60.60686800783086
 21
-64.31761769450206
  0
CIRCLE
  5
1AB
100
AcDbEntity
  8
Station Marks
  6
ByLayer
 62
  256
370
   -1
100
AcDbCircle
 10
-18.87079283895126
 20
-47.09454103519617
 40
0.7744705207443496
  0
LINE
  5
1AC
100
AcDbEntity
  8
Station Marks
  6
ByLayer
 62
  256
370
   -1
100
AcDbLine
 10
-19.87722422197933
 20
-47.11430724974274
 11
-17.86436145595441
 21
-47.07477482077445
  0
LINE
  5
1AD
100
AcDbEntity
  8
Station Marks
  6
ByLayer
 62
  256
370
   -1
100
AcDbLine
 10
-18.8905590534666
 20
-46.08810965219934
 11
-18.85102662446711
 21
-48.10097241819301
  0
CIRCLE
  5
1AE
100
AcDbEntity
  8
Station Marks
  6
ByLayer
 62
  256
370
   -1
100
AcDbCircle
 10
-31.78155030619625
 20
-62.55196284229955
 40
0.7744705207443496
  0
LINE
  5
1AF
100
AcDbEntity
  8
Station Marks
  6
ByLayer
 62
  256
370
   -1
100
AcDbLine
 10
-32.78798168922428
 20
-62.57172905684614
 11
-30.7751189231994
 21
-62.53219662775297
  0
LINE
  5
1B0
100
AcDbEntity
  8
Station Marks
  6
ByLayer
 62
  256
370
   -1
100
AcDbLine
 10
-31.80131652071162
 20
-61.54553145930268
 11
-31.76178409168088
 21
-63.55839422529638
  0
CIRCLE
  5
1B1
100
AcDbEntity
  8
Station Marks
  6
ByLayer
 62
  256
370
   -1
100
AcDbCircle
 10
16.00751136947157
 20
-89.57808446619175
 40
0.7744705207443496
  0
LINE
  5
1B2
100
AcDbEntity
  8
Station Marks
  6
ByLayer
 62
  256
370
   -1
100
AcDbLine
 10
15.00107998647475
 20
-89.59785068073833
 11
17.01394275249964
 21
-89.55831825164516
  0
LINE
  5
1B3
100
AcDbEntity
  8
Station Marks
  6
ByLayer
 62
  256
370
   -1
100
AcDbLine
 10
15.98774515495619
 20
-88.57165308319489
 11
16.02727758398694
 21
-90.58451584918859
  0
CIRCLE
  5
1B4
100
AcDbEntity
  8
Station Marks
  6
ByLayer
 62
  256
370
   -1
100
AcDbCircle
 10
-101.3771804460602
 20
-87.18035988782388
 40
0.7744705207443496
  0
LINE
  5
1B5
100
AcDbEntity
  8
Station Marks
  6
ByLayer
 62
  256
370
   -1
100
AcDbLine
 10
-102.3836118290883
 20
-87.20012610224558
 11
-100.3707490630634
 21
-87.1605936732773
  0
LINE
  5
1B6
100
AcDbEntity
  8
Station Marks
  6
ByLayer
 62
  256
370
   -1
100
AcDbLine
 10
-101.3969466605756
 20
-86.17392850470216
 11
-101.3574142315449
 21
-88.18679127082075
  0
CIRCLE
  5
1B7
100
AcDbEntity
  8
Station Marks
  6
ByLayer
 62
  256
370
   -1
100
AcDbCircle
 10
-85.08972970027571
 20
-95.23840746763766
 40
0.7744705207443496
  0
LINE
  5
1B8
100
AcDbEntity
  8
Station Marks
  6
ByLayer
 62
  256
370
   -1
100
AcDbLine
 10
-86.09616108327256
 20
-95.25817368218424
 11
-84.08329831724765
 21
-95.21864125321596
  0
LINE
  5
1B9
100
AcDbEntity
  8
Station Marks
  6
ByLayer
 62
  256
370
   -1
100
AcDbLine
 10
-85.10949591479107
 20
-94.23197608464082
 11
-85.06996348576035
 21
-96.24483885063449
  0
CIRCLE
  5
1BA
100
AcDbEntity
  8
Station Marks
  6
ByLayer
 62
  256
370
   -1
100
AcDbCircle
 10
-78.69870736469456
 20
-95.75842485619303
 40
0.7744705207443496
  0
LINE
  5
1BB
100
AcDbEntity
  8
Station Marks
  6
ByLayer
 62
  256
370
   -1
100
AcDbLine
 10
-79.70513874769141
 20
-95.77819107061472
 11
-77.6922759816665
 21
-95.73865864164645
  0
LINE
  5
1BC
100
AcDbEntity
  8
Station Marks
  6
ByLayer
 62
  256
370
   -1
100
AcDbLine
 10
-78.71847357920993
 20
-94.75199347307131
 11
-78.6789411501792
 21
-96.76485623918987
  0
CIRCLE
  5
1BD
100
AcDbEntity
  8
Station Marks
  6
ByLayer
 62
  256
370
   -1
100
AcDbCircle
 10
-72.41765613643589
 20
-95.02947516661474
 40
0.7744705207443496
  0
LINE
  5
1BE
100
AcDbEntity
  8
Station Marks
  6
ByLayer
 62
  256
370
   -1
100
AcDbLine
 10
-73.42408751943273
 20
-95.04924138116132
 11
-71.41122475340782
 21
-95.00970895206815
  0
LINE
  5
1BF
100
AcDbEntity
  8
Station Marks
  6
ByLayer
 62
  256
370
   -1
100
AcDbLine
 10
-72.43742235095124
 20
-94.02304378361791
 11
-72.39788992192055
 21
-96.03590654961158
  0
CIRCLE
  5
1C0
100
AcDbEntity
  8
Station Marks
  6
ByLayer
 62
  256
370
   -1
100
AcDbCircle
 10
-60.84959281681451
 20
-100.9047434000263
 40
0.7744705207443496
  0
LINE
  5
1C1
100
AcDbEntity
  8
Station Marks
  6
ByLayer
 62
  256
370
   -1
100
AcDbLine
 10
-61.85602419981134
 20
-100.924509614448
 11
-59.84316143378643
 21
-100.8849771854798
  0
LINE
  5
1C2
100
AcDbEntity
  8
Station Marks
  6
ByLayer
 62
  256
370
   -1
100
AcDbLine
 10
-60.86935903132986
 20
-99.89831201690461
 11
-60.82982660229915
 21
-101.9111747830232
  0
CIRCLE
  5
1C3
100
AcDbEntity
  8
Station Marks
  6
ByLayer
 62
  256
370
   -1
100
AcDbCircle
 10
-72.2139401890206
 20
-108.2935717000073
 40
0.7744705207443496
  0
LINE
  5
1C4
100
AcDbEntity
  8
Station Marks
  6
ByLayer
 62
  256
370
   -1
100
AcDbLine
 10
-73.22037157204865
 20
-108.313337914429
 11
-71.20750880602375
 21
-108.2738054854607
  0
LINE
  5
1C5
100
AcDbEntity
  8
Station Marks
  6
ByLayer
 62
  256
370
   -1
100
AcDbLine
 10
-72.23370640353596
 20
-107.2871403168856
 11
-72.19417397450525
 21
-109.3000030830041
  0
CIRCLE
  5
1C6
100
AcDbEntity
  8
Station Marks
  6
ByLayer
 62
  256
370
   -1
100
AcDbCircle
 10
-85.36873275392229
 20
-108.1116913218213
 40
0.7744705207443496
  0
LINE
  5
1C7
100
AcDbEntity
  8
Station Marks
  6
ByLayer
 62
  256
370
   -1
100
AcDbLine
 10
-86.37516413695036
 20
-108.1314575363678
 11
-84.36230137092545
 21
-108.0919251072747
  0
LINE
  5
1C8
100
AcDbEntity
  8
Station Marks
  6
ByLayer
 62
  256
370
   -1
100
AcDbLine
 10
-85.38849896843764
 20
-107.1052599388244
 11
-85.34896653940692
 21
-109.1181227048181
  0
CIRCLE
  5
1C9
100
AcDbEntity
  8
Station Marks
  6
ByLayer
 62
  256
370
   -1
100
AcDbCircle
 10
-96.37178527581892
 20
-113.515751498519
 40
0.7744705207443496
  0
LINE
  5
1CA
100
AcDbEntity
  8
Station Marks
  6
ByLayer
 62
  256
370
   -1
100
AcDbLine
 10
-97.37821665884698
 20
-113.5355177130656
 11
-95.36535389282207
 21
-113.4959852840973
  0
LINE
  5
1CB
100
AcDbEntity
  8
Station Marks
  6
ByLayer
 62
  256
370
   -1
100
AcDbLine
 10
-96.39155149033428
 20
-112.5093201155221
 11
-96.35201906130355
 21
-114.5221828816407
  0
CIRCLE
  5
1CC
100
AcDbEntity
  8
Station Marks
  6
ByLayer
 62
  256
370
   -1
100
AcDbCircle
 10
-78.26058784806102
 20
-114.7357618034373
 40
0.7744705207443496
  0
LINE
  5
1CD
100
AcDbEntity
  8
Station Marks
  6
ByLayer
 62
  256
370
   -1
100
AcDbLine
 10
-79.26701923108908
 20
-114.755528017859
 11
-77.25415646506417
 21
-114.7159955888908
  0
LINE
  5
1CE
100
AcDbEntity
  8
Station Marks
  6
ByLayer
 62
  256
370
   -1
100
AcDbLine
 10
-78.28035406257638
 20
-113.7293304203156
 11
-78.24082163354566
 21
-115.7421931864342
  0
MTEXT
  5
1CF
100
AcDbEntity
  8
Station Marks
  6
ByLayer
 62
  256
370
   -1
100
AcDbMText
 10
29.05038092087241
 20
8.909162626801503
 30
0
 40
1.772671542080883
 41
1.181781028053922
 71
    1
 72
    5
  1
w
  7
standard
210
0
220
0
230
1
 50
1.125138889000001
 73
    1
 44
1
  0
CIRCLE
  5
1D0
100
AcDbEntity
  8
Station Marks
  6
ByLayer
 62
  256
370
   -1
100
AcDbCircle
 10
27.81541342892078
 20
7.780789478003783
 40
0.7744705207443496
  0
LINE
  5
1D1
100
AcDbEntity
  8
Station Marks
  6
ByLayer
 62
  256
370
   -1
100
AcDbLine
 10
26.80898204589275
 20
7.761023263582075
 11
28.82184481191766
 21
7.800555692550319
  0
LINE
  5
1D2
100
AcDbEntity
  8
Station Marks
  6
ByLayer
 62
  256
370
   -1
100
AcDbLine
 10
27.79564721440545
 20
8.787220861000606
 11
27.83517964343616
 21
6.77435809500696
  0
MTEXT
  5
1D3
100
AcDbEntity
  8
Station Marks
  6
ByLayer
 62
  256
370
   -1
100
AcDbMText
 10
28.77060198704325
 20
5.798632605547311
 30
0
 40
1.772671542080883
 41
0.7878540187026146
 71
    1
 72
    5
  1
y
  7
standard
210
0
220
0
230
1
 50
1.125138889000001
 73
    1
 44
1
  0
CIRCLE
  5
1D4
100
AcDbEntity
  8
Station Marks
  6
ByLayer
 62
  256
370
   -1
100
AcDbCircle
 10
25.03841820241423
 20
1.908992623646355
 40
0.7744705207443496
  0
LINE
  5
1D5
100
AcDbEntity
  8
Station Marks
  6
ByLayer
 62
  256
370
   -1
100
AcDbLine
 10
24.03198681941741
 20
1.889226409224676
 11
26.04484958544231
 21
1.92875883819292
  0
LINE
  5
1D6
100
AcDbEntity
  8
Station Marks
  6
ByLayer
 62
  256
370
   -1
100
AcDbLine
 10
25.01865198789888
 20
2.915424006768092
 11
25.05818441692961
 21
0.9025612406495043
  0
CIRCLE
  5
1D7
100
AcDbEntity
  8
Station Marks
  6
ByLayer
 62
  256
370
   -1
100
AcDbCircle
 10
30.56566465896421
 20
2.544469056539555
 40
0.7744705207443496
  0
LINE
  5
1D8
100
AcDbEntity
  8
Station Marks
  6
ByLayer
 62
  256
370
   -1
100
AcDbLine
 10
29.55923327593612
 20
2.524702842117847
 11
31.57209604196103
 21
2.564235271086147
  0
LINE
  5
1D9
100
AcDbEntity
  8
Station Marks
  6
ByLayer
 62
  256
370
   -1
100
AcDbLine
 10
30.54589844444885
 20
3.550900439661262
 11
30.58543087347957
 21
1.538037673542703
  0
CIRCLE
  5
1DA
100
AcDbEntity
  8
Station Marks
  6
ByLayer
 62
  256
370
   -1
100
AcDbCircle
 10
27.81482499612272
 20
4.248456531502853
 40
0.7744705207443496
  0
LINE
  5
1DB
100
AcDbEntity
  8
Station Marks
  6
ByLayer
 62
  256
370
   -1
100
AcDbLine
 10
26.8083936131259
 20
4.228690316956289
 11
28.82125637915078
 21
4.268222745924533
  0
LINE
  5
1DC
100
AcDbEntity
  8
Station Marks
  6
ByLayer
 62
  256
370
   -1
100
AcDbLine
 10
27.79505878160737
 20
5.254887914499704
 11
27.83459121063811
 21
3.242025148381117
  0
MTEXT
  5
1DD
100
AcDbEntity
  8
Station Marks
  6
ByLayer
 62
  256
370
   -1
100
AcDbMText
 10
31.76356883277182
 20
3.685720255651262
 30
0
 40
1.772671542080883
 41
0.5908905140270433
 71
    1
 72
    5
  1
c
  7
standard
210
0
220
0
230
1
 50
1.125138889000001
 73
    1
 44
1
  0
MTEXT
  5
1DE
100
AcDbEntity
  8
Station Marks
  6
ByLayer
 62
  256
370
   -1
100
AcDbMText
 10
25.88643932780244
 20
3.283957158235808
 30
0
 40
1.772671542080883
 41
0.3939270093513898
 71
    1
 72
    5
  1
j
  7
standard
210
0
220
0
230
1
 50
1.125138889000001
 73
    1
 44
1
  0
MTEXT
  5
1DF
100
AcDbEntity
  8
Station Marks
  6
ByLayer
 62
  256
370
   -1
100
AcDbMText
 10
21.31748302110377
 20
-10.90731694232008
 30
0
 40
1.772671542080883
 41
0.787854018702697
 71
    1
 72
    5
  1
u
  7
standard
210
0
220
0
230
1
 50
1.125138889000001
 73
    1
 44
1
  0
MTEXT
  5
1E0
100
AcDbEntity
  8
Station Marks
  6
ByLayer
 62
  256
370
   -1
100
AcDbMText
 10
21.04164163103846
 20
-3.67555340285557
 30
0
 40
1.772671542080883
 41
0.5908905140269609
 71
    1
 72
    5
  1
t
  7
standard
210
0
220
0
230
1
 50
1.125138889000001
 73
    1
 44
1
  0
MTEXT
  5
1E1
100
AcDbEntity
  8
Station Marks
  6
ByLayer
 62
  256
370
   -1
100
AcDbMText
 10
21.04060396403382
 20
6.075778937157025
 30
0
 40
1.772671542080883
 41
2.167273544851826
 71
    1
 72
    5
  1
s?
  7
standard
210
0
220
0
230
1
 50
1.125138889000001
 73
    1
 44
1
  0
MTEXT
  5
1E2
100
AcDbEntity
  8
Station Marks
  6
ByLayer
 62
  256
370
   -1
100
AcDbMText
 10
20.87498865230833
 20
13.4693772696636
 30
0
 40
1.772671542080883
 41
0.5908905140269609
 71
    1
 72
    5
  1
r
  7
standard
210
0
220
0
230
1
 50
1.125138889000001
 73
    1
 44
1
  0
MTEXT
  5
1E3
100
AcDbEntity
  8
Station Marks
  6
ByLayer
 62
  256
370
   -1
100
AcDbMText
 10
-1.231940162444573
 20
16.80664185976261
 30
0
 40
1.772671542080883
 41
0.7878540187026146
 71
    1
 72
    5
  1
p
  7
standard
210
0
220
0
230
1
 50
1.125138889000001
 73
    1
 44
1
  0
MTEXT
  5
1E4
100
AcDbEntity
  8
Station Marks
  6
ByLayer
 62
  256
370
   -1
100
AcDbMText
 10
-71.17519536281746
 20
-93.78293082250387
 30
0
 40
1.772671542080883
 41
0.7878540187026146
 71
    1
 72
    5
  1
x
  7
standard
210
0
220
0
230
1
 50
1.125138889000001
 73
    1
 44
1
  0
MTEXT
  5
1E5
100
AcDbEntity
  8
Station Marks
  6
ByLayer
 62
  256
370
   -1
100
AcDbMText
 10
-70.93638944655711
 20
-107.0224216812606
 30
0
 40
1.772671542080883
 41
0.787854018702697
 71
    1
 72
    5
  1
n
  7
standard
210
0
220
0
230
1
 50
1.125138889000001
 73
    1
 44
1
  0
MTEXT
  5
1E6
100
AcDbEntity
  8
Station Marks
  6
ByLayer
 62
  256
370
   -1
100
AcDbMText
 10
-83.87899146362901
 20
-106.9687814162121
 30
0
 40
1.772671542080883
 41
1.181781028054004
 71
    1
 72
    5
  1
m
  7
standard
210
0
220
0
230
1
 50
1.125138889000001
 73
    1
 44
1
  0
MTEXT
  5
1E7
100
AcDbEntity
  8
Station Marks
  6
ByLayer
 62
  256
370
   -1
100
AcDbMText
 10
-83.72485809682203
 20
-94.22974739744436
 30
0
 40
1.772671542080883
 41
0.1969635046757086
 71
    1
 72
    5
  1
l
  7
standard
210
0
220
0
230
1
 50
1.125138889000001
 73
    1
 44
1
  0
MTEXT
  5
1E8
100
AcDbEntity
  8
Station Marks
  6
ByLayer
 62
  256
370
   -1
100
AcDbMText
 10
-95.02083273968654
 20
-112.5055838696128
 30
0
 40
1.772671542080883
 41
0.7878540187026146
 71
    1
 72
    5
  1
k
  7
standard
210
0
220
0
230
1
 50
1.125138889000001
 73
    1
 44
1
  0
MTEXT
  5
1E9
100
AcDbEntity
  8
Station Marks
  6
ByLayer
 62
  256
370
   -1
100
AcDbMText
 10
-99.94273922529983
 20
-86.25837852445436
 30
0
 40
1.772671542080883
 41
0
 71
    1
 72
    5
  1
i
  7
standard
210
0
220
0
230
1
 50
1.125138889000001
 73
    1
 44
1
  0
MTEXT
  5
1EA
100
AcDbEntity
  8
Station Marks
  6
ByLayer
 62
  256
370
   -1
100
AcDbMText
 10
-63.37317027198051
 20
-56.47188781897101
 30
0
 40
1.772671542080883
 41
0.7878540187026146
 71
    1
 72
    5
  1
q
  7
standard
210
0
220
0
230
1
 50
1.125138889000001
 73
    1
 44
1
  0
MTEXT
  5
1EB
100
AcDbEntity
  8
Station Marks
  6
ByLayer
 62
  256
370
   -1
100
AcDbMText
 10
-59.21544609660207
 20
-62.28018272836037
 30
0
 40
1.772671542080883
 41
0.787854018702697
 71
    1
 72
    5
  1
h
  7
standard
210
0
220
0
230
1
 50
1.125138889000001
 73
    1
 44
1
  0
MTEXT
  5
1EC
100
AcDbEntity
  8
Station Marks
  6
ByLayer
 62
  256
370
   -1
100
AcDbMText
 10
-30.48441099264802
 20
-61.34947092988716
 30
0
 40
1.772671542080883
 41
0.7878540187026146
 71
    1
 72
    5
  1
z
  7
standard
210
0
220
0
230
1
 50
1.125138889000001
 73
    1
 44
1
  0
MTEXT
  5
1ED
100
AcDbEntity
  8
Station Marks
  6
ByLayer
 62
  256
370
   -1
100
AcDbMText
 10
-29.91791316236453
 20
-32.69954115164407
 30
0
 40
1.772671542080883
 41
0.787854018702697
 71
    1
 72
    5
  1
e
  7
standard
210
0
220
0
230
1
 50
1.125138889000001
 73
    1
 44
1
  0
MTEXT
  5
1EE
100
AcDbEntity
  8
Station Marks
  6
ByLayer
 62
  256
370
   -1
100
AcDbMText
 10
-59.2736923426105
 20
-32.57551965870005
 30
0
 40
1.772671542080883
 41
0.787854018702697
 71
    1
 72
    5
  1
d
  7
standard
210
0
220
0
230
1
 50
1.125138889000001
 73
    1
 44
1
  0
MTEXT
  5
1EF
100
AcDbEntity
  8
Station Marks
  6
ByLayer
 62
  256
370
   -1
100
AcDbMText
 10
-63.40699369279267
 20
-24.52464325423209
 30
0
 40
1.772671542080883
 41
0.7878540187027794
 71
    1
 72
    5
  1
g
  7
standard
210
0
220
0
230
1
 50
1.125138889000001
 73
    1
 44
1
  0
MTEXT
  5
1F0
100
AcDbEntity
  8
Station Marks
  6
ByLayer
 62
  256
370
   -1
100
AcDbMText
 10
-44.17271945703983
 20
-34.77112510747403
 30
0
 40
1.772671542080883
 41
0.787854018702697
 71
    1
 72
    5
  1
b
  7
standard
210
0
220
0
230
1
 50
1.125138889000001
 73
    1
 44
1
  0
MTEXT
  5
1F1
100
AcDbEntity
  8
Station Marks
  6
ByLayer
 62
  256
370
   -1
100
AcDbMText
 10
-15.32482878423923
 20
-26.51656997733971
 30
0
 40
1.772671542080883
 41
0.787854018702697
 71
    1
 72
    5
  1
a
  7
standard
210
0
220
0
230
1
 50
1.125138889000001
 73
    1
 44
1
  0
MTEXT
  5
1F2
100
AcDbEntity
  8
Station Marks
  6
ByLayer
 62
  256
370
   -1
100
AcDbMText
 10
12.20408418935139
 20
-28.20565199444512
 30
0
 40
1.772671542080883
 41
0.9848175233782683
 71
    1
 72
    5
  1
Z
  7
standard
210
0
220
0
230
1
 50
1.125138889000001
 73
    1
 44
1
  0
MTEXT
  5
1F3
100
AcDbEntity
  8
Station Marks
  6
ByLayer
 62
  256
370
   -1
100
AcDbMText
 10
-26.86011872588381
 20
-2.482228146666927
 30
0
 40
1.772671542080883
 41
1.181781028053922
 71
    1
 72
    5
  1
Y
  7
standard
210
0
220
0
230
1
 50
1.125138889000001
 73
    1
 44
1
  0
MTEXT
  5
1F4
100
AcDbEntity
  8
Station Marks
  6
ByLayer
 62
  256
370
   -1
100
AcDbMText
 10
-12.65962467221915
 20
1.034260299688356
 30
0
 40
1.772671542080883
 41
1.181781028053922
 71
    1
 72
    5
  1
X
  7
standard
210
0
220
0
230
1
 50
1.125138889000001
 73
    1
 44
1
  0
MTEXT
  5
1F5
100
AcDbEntity
  8
Station Marks
  6
ByLayer
 62
  256
370
   -1
100
AcDbMText
 10
-14.7622645416823
 20
-14.86176236306925
 30
0
 40
1.772671542080883
 41
1.575708037405229
 71
    1
 72
    5
  1
W
  7
standard
210
0
220
0
230
1
 50
1.125138889000001
 73
    1
 44
1
  0
MTEXT
  5
1F6
100
AcDbEntity
  8
Station Marks
  6
ByLayer
 62
  256
370
   -1
100
AcDbMText
 10
0.1160964377465916
 20
-12.60418862358647
 30
0
 40
1.772671542080883
 41
1.181781028053922
 71
    1
 72
    5
  1
V
  7
standard
210
0
220
0
230
1
 50
1.125138889000001
 73
    1
 44
1
  0
MTEXT
  5
1F7
100
AcDbEntity
  8
Station Marks
  6
ByLayer
 62
  256
370
   -1
100
AcDbMText
 10
17.2332735601388
 20
-14.87928914333578
 30
0
 40
1.772671542080883
 41
0.9848175233782683
 71
    1
 72
    5
  1
U
  7
standard
210
0
220
0
230
1
 50
1.125138889000001
 73
    1
 44
1
  0
MTEXT
  5
1F8
100
AcDbEntity
  8
Station Marks
  6
ByLayer
 62
  256
370
   -1
100
AcDbMText
 10
12.17093621414362
 20
2.053668362243172
 30
0
 40
1.772671542080883
 41
0.9848175233782683
 71
    1
 72
    5
  1
T
  7
standard
210
0
220
0
230
1
 50
1.125138889000001
 73
    1
 44
1
  0
MTEXT
  5
1F9
100
AcDbEntity
  8
Station Marks
  6
ByLayer
 62
  256
370
   -1
100
AcDbMText
 10
25.74231450971041
 20
-2.843031707543304
 30
0
 40
1.772671542080883
 41
0.9848171475680914
 71
    1
 72
    5
  1
S
  7
standard
210
0
220
0
230
1
 50
1.125138889000001
 73
    1
 44
1
  0
MTEXT
  5
1FA
100
AcDbEntity
  8
Station Marks
  6
ByLayer
 62
  256
370
   -1
100
AcDbMText
 10
1.233238027561299
 20
1.030987405990032
 30
0
 40
1.772671542080883
 41
0.9848175233782683
 71
    1
 72
    5
  1
R
  7
standard
210
0
220
0
230
1
 50
1.125138889000001
 73
    1
 44
1
  0
MTEXT
  5
1FB
100
AcDbEntity
  8
Station Marks
  6
ByLayer
 62
  256
370
   -1
100
AcDbMText
 10
17.17795255757719
 20
16.98427262023185
 30
0
 40
1.772671542080883
 41
1.181781028053922
 71
    1
 72
    5
  1
Q
  7
standard
210
0
220
0
230
1
 50
1.125138889000001
 73
    1
 44
1
  0
MTEXT
  5
1FC
100
AcDbEntity
  8
Station Marks
  6
ByLayer
 62
  256
370
   -1
100
AcDbMText
 10
2.562555489559657
 20
14.35080686936365
 30
0
 40
1.772671542080883
 41
0.9848175233782683
 71
    1
 72
    5
  1
P
  7
standard
210
0
220
0
230
1
 50
1.125138889000001
 73
    1
 44
1
  0
MTEXT
  5
1FD
100
AcDbEntity
  8
Station Marks
  6
ByLayer
 62
  256
370
   -1
100
AcDbMText
 10
-14.56908797158812
 20
16.96102032544599
 30
0
 40
1.772671542080883
 41
0.9848175233782683
 71
    1
 72
    5
  1
O
  7
standard
210
0
220
0
230
1
 50
1.125138889000001
 73
    1
 44
1
  0
MTEXT
  5
1FE
100
AcDbEntity
  8
Station Marks
  6
ByLayer
 62
  256
370
   -1
100
AcDbMText
 10
-31.37322162549381
 20
16.50240205490488
 30
0
 40
1.772671542080883
 41
0.9848175233782683
 71
    1
 72
    5
  1
N
  7
standard
210
0
220
0
230
1
 50
1.125138889000001
 73
    1
 44
1
  0
MTEXT
  5
1FF
100
AcDbEntity
  8
Station Marks
  6
ByLayer
 62
  256
370
   -1
100
AcDbMText
 10
-19.20196728533105
 20
23.22581284487788
 30
0
 40
1.772671542080883
 41
1.181781028053922
 71
    1
 72
    5
  1
M
  7
standard
210
0
220
0
230
1
 50
1.125138889000001
 73
    1
 44
1
  0
MTEXT
  5
200
100
AcDbEntity
  8
Station Marks
  6
ByLayer
 62
  256
370
   -1
100
AcDbMText
 10
16.2031927516045
 20
27.19010901213488
 30
0
 40
1.772671542080883
 41
0.9848175233782683
 71
    1
 72
    5
  1
K
  7
standard
210
0
220
0
230
1
 50
1.125138889000001
 73
    1
 44
1
  0
MTEXT
  5
201
100
AcDbEntity
  8
Station Marks
  6
ByLayer
 62
  256
370
   -1
100
AcDbMText
 10
17.1166196702638
 20
-88.68347841538966
 30
0
 40
1.772671542080883
 41
0.5908905140270708
 71
    1
 72
    5
  1
J
  7
standard
210
0
220
0
230
1
 50
1.125138889000001
 73
    1
 44
1
  0
MTEXT
  5
202
100
AcDbEntity
  8
Station Marks
  6
ByLayer
 62
  256
370
   -1
100
AcDbMText
 10
-11.07157785826436
 20
-3.52008496015317
 30
0
 40
1.772671542080883
 41
0.9848175233783782
 71
    1
 72
    5
  1
G
  7
standard
210
0
220
0
230
1
 50
1.125138889000001
 73
    1
 44
1
  0
MTEXT
  5
203
100
AcDbEntity
  8
Station Marks
  6
ByLayer
 62
  256
370
   -1
100
AcDbMText
 10
-101.3249747344933
 20
-27.47802841150698
 30
0
 40
1.772671542080883
 41
0.7878540187026146
 71
    1
 72
    5
  1
F
  7
standard
210
0
220
0
230
1
 50
1.125138889000001
 73
    1
 44
1
  0
MTEXT
  5
204
100
AcDbEntity
  8
Station Marks
  6
ByLayer
 62
  256
370
   -1
100
AcDbMText
 10
-77.31920605600618
 20
-94.7383895765018
 30
0
 40
1.772671542080883
 41
0.7878540187026146
 71
    1
 72
    5
  1
E
  7
standard
210
0
220
0
230
1
 50
1.125138889000001
 73
    1
 44
1
  0
MTEXT
  5
205
100
AcDbEntity
  8
Station Marks
  6
ByLayer
 62
  256
370
   -1
100
AcDbMText
 10
-76.78123565472256
 20
-113.727328984932
 30
0
 40
1.772671542080883
 41
0.9848175233783782
 71
    1
 72
    5
  1
D
  7
standard
210
0
220
0
230
1
 50
1.125138889000001
 73
    1
 44
1
  0
MTEXT
  5
206
100
AcDbEntity
  8
Station Marks
  6
ByLayer
 62
  256
370
   -1
100
AcDbMText
 10
-59.48205523318951
 20
-99.84318986970126
 30
0
 40
1.772671542080883
 41
0.7878540187027245
 71
    1
 72
    5
  1
C
  7
standard
210
0
220
0
230
1
 50
1.125138889000001
 73
    1
 44
1
  0
MTEXT
  5
207
100
AcDbEntity
  8
Station Marks
  6
ByLayer
 62
  256
370
   -1
100
AcDbMText
 10
-17.52774781733207
 20
-46.12396037143729
 30
0
 40
1.772671542080883
 41
0.9848175233782683
 71
    1
 72
    5
  1
B
  7
standard
210
0
220
0
230
1
 50
1.125138889000001
 73
    1
 44
1
  0
MTEXT
  5
208
100
AcDbEntity
  8
Station Marks
  6
ByLayer
 62
  256
370
   -1
100
AcDbMText
 10
25.52105975590639
 20
-20.28224030133445
 30
0
 40
1.772671542080883
 41
1.181781028053922
 71
    1
 72
    5
  1
A
  7
standard
210
0
220
0
230
1
 50
1.125138889000001
 73
    1
 44
1
  0
LINE
  5
209
100
AcDbEntity
  8
Station Marks
  6
ByLayer
 62
    1
370
   -1
100
AcDbLine
 10
-0.7588443325637115
 20
-0.01490362887710717
 11
0.7588541930082755
 21
0.01490382253521716
  0
LINE
  5
20A
100
AcDbEntity
  8
exterior
  6
ByLayer
 62
  256
370
   -1
100
AcDbLine
 10
30.13981772613599
 20
-16.1437983394998
 11
23.18914065229187
 21
-16.1437983394998
  0
LINE
  5
20B
100
AcDbEntity
  8
exterior
  6
ByLayer
 62
  256
370
   -1
100
AcDbLine
 10
30.13014792505177
 20
-9.21568250567563
 11
23.17294195566335
 21
-9.236611744567341
  0
LINE
  5
20C
100
AcDbEntity
  8
exterior
  6
ByLayer
 62
  256
370
   -1
100
AcDbLine
 10
23.18914065229187
 20
-16.1437983394998
 11
23.17294195566335
 21
-9.236611744567341
  0
LINE
  5
20D
100
AcDbEntity
  8
exterior
  6
ByLayer
 62
  256
370
   -1
100
AcDbLine
 10
30.02239345763971
 20
-13.68767806234808
 11
30.84946631383295
 21
-13.68767806234808
  0
LINE
  5
20E
100
AcDbEntity
  8
exterior
  6
ByLayer
 62
  256
370
   -1
100
AcDbLine
 10
30.84946631383295
 20
-13.68767806234808
 11
30.84946631383295
 21
-12.77313582232952
  0
LINE
  5
20F
100
AcDbEntity
  8
exterior
  6
ByLayer
 62
  256
370
   -1
100
AcDbLine
 10
30.84946631383295
 20
-12.77313582232952
 11
30.70561984584157
 21
-12.77313582232952
  0
LINE
  5
210
100
AcDbEntity
  8
exterior
  6
ByLayer
 62
  256
370
   -1
100
AcDbLine
 10
30.70561984584157
 20
-12.77313582232952
 11
30.70561984584157
 21
-12.79925724639399
  0
LINE
  5
211
100
AcDbEntity
  8
exterior
  6
ByLayer
 62
  256
370
   -1
100
AcDbLine
 10
30.70561984584157
 20
-12.79925724639399
 11
30.56207890415396
 21
-12.79925724639399
  0
LINE
  5
212
100
AcDbEntity
  8
exterior
  6
ByLayer
 62
  256
370
   -1
100
AcDbLine
 10
30.56207890415396
 20
-12.79925724639399
 11
30.56207890415396
 21
-13.40297355996276
  0
LINE
  5
213
100
AcDbEntity
  8
exterior
  6
ByLayer
 62
  256
370
   -1
100
AcDbLine
 10
30.56207890415396
 20
-13.40297355996276
 11
30.2794549858863
 21
-13.40297355996276
  0
LINE
  5
214
100
AcDbEntity
  8
exterior
  6
ByLayer
 62
  256
370
   -1
100
AcDbLine
 10
30.2794549858863
 20
-13.40297355996276
 11
30.2794549858863
 21
-13.33204744759939
  0
LINE
  5
215
100
AcDbEntity
  8
exterior
  6
ByLayer
 62
  256
370
   -1
100
AcDbLine
 10
30.2794549858863
 20
-13.33204744759939
 11
30.24037832307752
 21
-13.33204744759939
  0
LINE
  5
216
100
AcDbEntity
  8
exterior
  6
ByLayer
 62
  256
370
   -1
100
AcDbLine
 10
30.24037832307752
 20
-13.33204744759939
 11
30.24037832307752
 21
-13.2670318445997
  0
LINE
  5
217
100
AcDbEntity
  8
exterior
  6
ByLayer
 62
  256
370
   -1
100
AcDbLine
 10
30.24037832307752
 20
-13.2670318445997
 11
30.19393860664917
 21
-13.2670318445997
  0
LINE
  5
218
100
AcDbEntity
  8
exterior
  6
ByLayer
 62
  256
370
   -1
100
AcDbLine
 10
30.19393860664917
 20
-13.2670318445997
 11
30.19393860664917
 21
-13.21721469424934
  0
LINE
  5
219
100
AcDbEntity
  8
exterior
  6
ByLayer
 62
  256
370
   -1
100
AcDbLine
 10
30.19393860664917
 20
-13.21721469424934
 11
30.24037832307752
 21
-13.21721469424934
  0
LINE
  5
21A
100
AcDbEntity
  8
exterior
  6
ByLayer
 62
  256
370
   -1
100
AcDbLine
 10
30.24037832307752
 20
-13.21721469424934
 11
30.24037832307752
 21
-13.17499677022346
  0
LINE
  5
21B
100
AcDbEntity
  8
exterior
  6
ByLayer
 62
  256
370
   -1
100
AcDbLine
 10
30.24037832307752
 20
-13.17499677022346
 11
30.2794549858863
 21
-13.17499677022346
  0
LINE
  5
21C
100
AcDbEntity
  8
exterior
  6
ByLayer
 62
  256
370
   -1
100
AcDbLine
 10
30.2794549858863
 20
-13.17499677022346
 11
30.2794549858863
 21
-12.16714929549798
  0
LINE
  5
21D
100
AcDbEntity
  8
exterior
  6
ByLayer
 62
  256
370
   -1
100
AcDbLine
 10
30.2794549858863
 20
-12.16714929549798
 11
30.24037832307752
 21
-12.16714929549798
  0
LINE
  5
21E
100
AcDbEntity
  8
exterior
  6
ByLayer
 62
  256
370
   -1
100
AcDbLine
 10
30.24037832307752
 20
-12.16714929549798
 11
30.24037832307752
 21
-12.11378181263281
  0
LINE
  5
21F
100
AcDbEntity
  8
exterior
  6
ByLayer
 62
  256
370
   -1
100
AcDbLine
 10
30.24037832307752
 20
-12.11378181263281
 11
30.19393860664917
 21
-12.11378181263281
  0
LINE
  5
220
100
AcDbEntity
  8
exterior
  6
ByLayer
 62
  256
370
   -1
100
AcDbLine
 10
30.19393860664917
 20
-12.11378181263281
 11
30.19393860664917
 21
-12.06041432976738
  0
LINE
  5
221
100
AcDbEntity
  8
exterior
  6
ByLayer
 62
  256
370
   -1
100
AcDbLine
 10
30.19393860664917
 20
-12.06041432976738
 11
30.24037832307752
 21
-12.06041432976738
  0
LINE
  5
222
100
AcDbEntity
  8
exterior
  6
ByLayer
 62
  256
370
   -1
100
AcDbLine
 10
30.24037832307752
 20
-12.06041432976738
 11
30.24037832307752
 21
-12.0166097116764
  0
LINE
  5
223
100
AcDbEntity
  8
exterior
  6
ByLayer
 62
  256
370
   -1
100
AcDbLine
 10
30.24037832307752
 20
-12.0166097116764
 11
30.2794549858863
 21
-12.0166097116764
  0
LINE
  5
224
100
AcDbEntity
  8
exterior
  6
ByLayer
 62
  256
370
   -1
100
AcDbLine
 10
30.2794549858863
 20
-12.0166097116764
 11
30.2794549858863
 21
-11.96462633996477
  0
LINE
  5
225
100
AcDbEntity
  8
exterior
  6
ByLayer
 62
  256
370
   -1
100
AcDbLine
 10
30.2794549858863
 20
-11.96462633996477
 11
30.56207890415396
 21
-11.96462633996477
  0
LINE
  5
226
100
AcDbEntity
  8
exterior
  6
ByLayer
 62
  256
370
   -1
100
AcDbLine
 10
30.56207890415396
 20
-11.96462633996477
 11
30.56207890415396
 21
-12.59745556955063
  0
LINE
  5
227
100
AcDbEntity
  8
exterior
  6
ByLayer
 62
  256
370
   -1
100
AcDbLine
 10
30.56207890415396
 20
-12.59745556955063
 11
30.70561984584157
 21
-12.59745556955063
  0
LINE
  5
228
100
AcDbEntity
  8
exterior
  6
ByLayer
 62
  256
370
   -1
100
AcDbLine
 10
30.70561984584157
 20
-12.59745556955063
 11
30.70561984584157
 21
-12.63122990877126
  0
LINE
  5
229
100
AcDbEntity
  8
exterior
  6
ByLayer
 62
  256
370
   -1
100
AcDbLine
 10
30.70561984584157
 20
-12.63122990877126
 11
30.84946631383295
 21
-12.63122990877126
  0
LINE
  5
22A
100
AcDbEntity
  8
exterior
  6
ByLayer
 62
  256
370
   -1
100
AcDbLine
 10
30.84946631383295
 20
-12.63122990877126
 11
30.84946631383295
 21
-11.67691311568835
  0
LINE
  5
22B
100
AcDbEntity
  8
exterior
  6
ByLayer
 62
  256
370
   -1
100
AcDbLine
 10
30.02239345763971
 20
-13.68767806234808
 11
30.02239345763971
 21
-11.67691311568835
  0
LINE
  5
22C
100
AcDbEntity
  8
exterior
  6
ByLayer
 62
  256
370
   -1
100
AcDbLine
 10
30.84946631383295
 20
-11.67691311568835
 11
30.02239345763971
 21
-11.67691311568835
  0
LINE
  5
22D
100
AcDbEntity
  8
exterior
  6
ByLayer
 62
  256
370
   -1
100
AcDbLine
 10
30.13981772613599
 20
-16.1437983394998
 11
30.13981772613599
 21
-13.68767806234808
  0
LINE
  5
22E
100
AcDbEntity
  8
exterior
  6
ByLayer
 62
  256
370
   -1
100
AcDbLine
 10
30.13981772613599
 20
-11.67691311568835
 11
30.13014792505177
 21
-9.21568250567563
  0
LINE
  5
22F
100
AcDbEntity
  8
exterior
  6
ByLayer
 62
  256
370
   -1
100
AcDbLine
 10
30.13981772613599
 20
-16.1437983394998
 11
23.17294195566335
 21
-9.236611744567341
  0
LINE
  5
230
100
AcDbEntity
  8
exterior
  6
ByLayer
 62
  256
370
   -1
100
AcDbLine
 10
29.96957811029236
 20
-15.97501726298552
 11
29.25205524333191
 21
-15.97501726298552
  0
LINE
  5
231
100
AcDbEntity
  8
exterior
  6
ByLayer
 62
  256
370
   -1
100
AcDbLine
 10
30.01913227617865
 20
-16.02414687023115
 11
29.30981584306284
 21
-16.02414687023115
  0
LINE
  5
232
100
AcDbEntity
  8
exterior
  6
ByLayer
 62
  256
370
   -1
100
AcDbLine
 10
30.0743675508848
 20
-16.07890891301582
 11
29.39966566486632
 21
-16.07890891301582
  0
LINE
  5
233
100
AcDbEntity
  8
exterior
  6
ByLayer
 62
  256
370
   -1
100
AcDbLine
 10
30.13014792505177
 20
-9.21568250567563
 11
23.18914065229187
 21
-16.1437983394998
  0
LINE
  5
234
100
AcDbEntity
  8
exterior
  6
ByLayer
 62
  256
370
   -1
100
AcDbLine
 10
29.96957811029236
 20
-15.97501726298552
 11
29.96957811029236
 21
-9.37595409628986
  0
LINE
  5
235
100
AcDbEntity
  8
exterior
  6
ByLayer
 62
  256
370
   -1
100
AcDbLine
 10
30.01913227617865
 20
-16.02414687023115
 11
30.02239345763971
 21
-13.68767806234808
  0
LINE
  5
236
100
AcDbEntity
  8
exterior
  6
ByLayer
 62
  256
370
   -1
100
AcDbLine
 10
30.0743675508848
 20
-16.07890891301582
 11
30.0743675508848
 21
-13.76605453016703
  0
LINE
  5
237
100
AcDbEntity
  8
exterior
  6
ByLayer
 62
  256
370
   -1
100
AcDbLine
 10
30.02228406183562
 20
-13.76605453016703
 11
30.92871709663075
 21
-13.76605453016703
  0
LINE
  5
238
100
AcDbEntity
  8
exterior
  6
ByLayer
 62
  256
370
   -1
100
AcDbLine
 10
30.92871709663075
 20
-13.76605453016703
 11
30.92871709663075
 21
-12.97505520607483
  0
LINE
  5
239
100
AcDbEntity
  8
exterior
  6
ByLayer
 62
  256
370
   -1
100
AcDbLine
 10
30.92871709663075
 20
-12.97505520607483
 11
31.35069036688674
 21
-12.97505520607483
  0
LINE
  5
23A
100
AcDbEntity
  8
exterior
  6
ByLayer
 62
  256
370
   -1
100
AcDbLine
 10
31.35069036688674
 20
-12.97505520607483
 11
31.35069036688674
 21
-12.42793396973509
  0
LINE
  5
23B
100
AcDbEntity
  8
exterior
  6
ByLayer
 62
  256
370
   -1
100
AcDbLine
 10
31.35069036688674
 20
-12.42793396973509
 11
30.92871709663075
 21
-12.42793396973509
  0
LINE
  5
23C
100
AcDbEntity
  8
exterior
  6
ByLayer
 62
  256
370
   -1
100
AcDbLine
 10
30.92871709663075
 20
-12.42793396973509
 11
30.92871709663075
 21
-11.60330446356566
  0
LINE
  5
23D
100
AcDbEntity
  8
exterior
  6
ByLayer
 62
  256
370
   -1
100
AcDbLine
 10
30.02239345763971
 20
-11.67691311568835
 11
30.02239345763971
 21
-9.323236842172733
  0
LINE
  5
23E
100
AcDbEntity
  8
exterior
  6
ByLayer
 62
  256
370
   -1
100
AcDbLine
 10
29.89403828609289
 20
-9.451353621395143
 11
29.89403828609289
 21
-15.2124424494712
  0
LINE
  5
23F
100
AcDbEntity
  8
exterior
  6
ByLayer
 62
  256
370
   -1
100
AcDbLine
 10
30.92871709663075
 20
-11.60330446356566
 11
30.02239345763971
 21
-11.60330446356566
  0
LINE
  5
240
100
AcDbEntity
  8
exterior
  6
ByLayer
 62
  256
370
   -1
100
AcDbLine
 10
29.89403828609289
 20
-9.451353621395143
 11
24.81046410319057
 21
-9.451353621395143
  0
LINE
  5
241
100
AcDbEntity
  8
exterior
  6
ByLayer
 62
  256
370
   -1
100
AcDbLine
 10
26.66443559131281
 20
-9.056660691476523
 11
26.66443559131281
 21
-9.451353621395143
  0
LINE
  5
242
100
AcDbEntity
  8
exterior
  6
ByLayer
 62
  256
370
   -1
100
AcDbLine
 10
25.75736728227537
 20
-9.040552367289521
 11
25.75736728227537
 21
-9.451353621395143
  0
LINE
  5
243
100
AcDbEntity
  8
exterior
  6
ByLayer
 62
  256
370
   -1
100
AcDbLine
 10
29.96957811029236
 20
-9.37595409628986
 11
26.66443559131281
 21
-9.37595409628986
  0
LINE
  5
244
100
AcDbEntity
  8
exterior
  6
ByLayer
 62
  256
370
   -1
100
AcDbLine
 10
30.02239345763971
 20
-9.323236842172733
 11
26.66443559131281
 21
-9.323236842172733
  0
LINE
  5
245
100
AcDbEntity
  8
exterior
  6
ByLayer
 62
  256
370
   -1
100
AcDbLine
 10
23.33912153650499
 20
-9.401367570702106
 11
25.75736728227537
 21
-9.401367570702106
  0
LINE
  5
246
100
AcDbEntity
  8
interior
  6
ByLayer
 62
  256
370
   -1
100
AcDbLine
 10
25.61162390944794
 20
-12.03708622987153
 11
25.61162390944794
 21
-11.78636011941289
  0
LINE
  5
247
100
AcDbEntity
  8
interior
  6
ByLayer
 62
  256
370
   -1
100
AcDbLine
 10
25.61162390944794
 20
-11.78636011941289
 11
25.06737045657842
 21
-11.78636011941289
  0
LINE
  5
248
100
AcDbEntity
  8
interior
  6
ByLayer
 62
  256
370
   -1
100
AcDbLine
 10
25.06737045657842
 20
-11.78636011941289
 11
25.06737045657842
 21
-12.20969124365713
  0
LINE
  5
249
100
AcDbEntity
  8
interior
  6
ByLayer
 62
  256
370
   -1
100
AcDbLine
 10
25.06737045657842
 20
-12.20969124365713
 11
25.61162390944794
 21
-12.20969124365713
  0
LINE
  5
24A
100
AcDbEntity
  8
interior
  6
ByLayer
 62
  256
370
   -1
100
AcDbLine
 10
25.61162390944794
 20
-12.20969124365713
 11
25.61162390944794
 21
-12.16841287118064
  0
LINE
  5
24B
100
AcDbEntity
  8
interior
  6
ByLayer
 62
  256
370
   -1
100
AcDbLine
 10
25.61162390944794
 20
-12.16841287118064
 11
26.48624982278074
 21
-12.16841287118064
  0
LINE
  5
24C
100
AcDbEntity
  8
interior
  6
ByLayer
 62
  256
370
   -1
100
AcDbLine
 10
26.48624982278074
 20
-12.16841287118064
 11
26.48624982278074
 21
-11.92456445090338
  0
LINE
  5
24D
100
AcDbEntity
  8
interior
  6
ByLayer
 62
  256
370
   -1
100
AcDbLine
 10
26.48624982278074
 20
-11.92456445090338
 11
26.29274035046052
 21
-11.78853135499673
  0
LINE
  5
24E
100
AcDbEntity
  8
interior
  6
ByLayer
 62
  256
370
   -1
100
AcDbLine
 10
26.15858291941336
 20
-11.78853135499673
 11
26.07264858163765
 21
-11.78853135499673
  0
LINE
  5
24F
100
AcDbEntity
  8
interior
  6
ByLayer
 62
  256
370
   -1
100
AcDbLine
 10
26.07264858163765
 20
-11.78853135499673
 11
26.07264858163765
 21
-12.03708622987153
  0
LINE
  5
250
100
AcDbEntity
  8
interior
  6
ByLayer
 62
  256
370
   -1
100
AcDbLine
 10
26.07264858163765
 20
-12.03708622987153
 11
25.61162390944794
 21
-12.03708622987153
  0
LINE
  5
251
100
AcDbEntity
  8
interior
  6
ByLayer
 62
  256
370
   -1
100
AcDbLine
 10
25.7199101767454
 20
-12.03161767667368
 11
25.71591880256901
 21
-11.97440798014418
  0
LINE
  5
252
100
AcDbEntity
  8
interior
  6
ByLayer
 62
  256
370
   -1
100
AcDbLine
 10
25.71591880256901
 20
-11.97440798014418
 11
25.71126219936306
 21
-11.92717671905584
  0
LINE
  5
253
100
AcDbEntity
  8
interior
  6
ByLayer
 62
  256
370
   -1
100
AcDbLine
 10
25.71126219936306
 20
-11.92717671905584
 11
25.71591880256901
 21
-11.85799289999676
  0
LINE
  5
254
100
AcDbEntity
  8
interior
  6
ByLayer
 62
  256
370
   -1
100
AcDbLine
 10
25.71591880256901
 20
-11.85799289999676
 11
25.70926651227481
 21
-11.78814385190834
  0
LINE
  5
255
100
AcDbEntity
  8
interior
  6
ByLayer
 62
  256
370
   -1
100
AcDbLine
 10
25.70926651227481
 20
-11.78814385190834
 11
25.71591880256901
 21
-11.74290827790828
  0
LINE
  5
256
100
AcDbEntity
  8
interior
  6
ByLayer
 62
  256
370
   -1
100
AcDbLine
 10
25.71591880256901
 20
-11.74290827790828
 11
25.71259265742194
 21
-11.69168564264344
  0
LINE
  5
257
100
AcDbEntity
  8
interior
  6
ByLayer
 62
  256
370
   -1
100
AcDbLine
 10
25.71259265742194
 20
-11.69168564264344
 11
25.70460990906898
 21
-11.63181502999628
  0
LINE
  5
258
100
AcDbEntity
  8
interior
  6
ByLayer
 62
  256
370
   -1
100
AcDbLine
 10
25.70460990906898
 20
-11.63181502999628
 11
25.71259265742194
 21
-11.56928350123141
  0
LINE
  5
259
100
AcDbEntity
  8
interior
  6
ByLayer
 62
  256
370
   -1
100
AcDbLine
 10
25.71259265742194
 20
-11.56928350123141
 11
25.70926651227481
 21
-11.54866140131956
  0
LINE
  5
25A
100
AcDbEntity
  8
interior
  6
ByLayer
 62
  256
370
   -1
100
AcDbLine
 10
25.70926651227481
 20
-11.54866140131956
 11
25.64806544156883
 21
-11.54400479811375
  0
LINE
  5
25B
100
AcDbEntity
  8
interior
  6
ByLayer
 62
  256
370
   -1
100
AcDbLine
 10
25.64806544156883
 20
-11.54400479811375
 11
25.58619914183339
 21
-11.55331800452545
  0
LINE
  5
25C
100
AcDbEntity
  8
interior
  6
ByLayer
 62
  256
370
   -1
100
AcDbLine
 10
25.58619914183339
 20
-11.55331800452545
 11
25.48481868894712
 21
-11.5477409950813
  0
LINE
  5
25D
100
AcDbEntity
  8
interior
  6
ByLayer
 62
  256
370
   -1
100
AcDbLine
 10
25.48481868894712
 20
-11.5477409950813
 11
25.3209715613151
 21
-11.54917825058688
  0
LINE
  5
25E
100
AcDbEntity
  8
interior
  6
ByLayer
 62
  256
370
   -1
100
AcDbLine
 10
25.3209715613151
 20
-11.54917825058688
 11
25.18066281078858
 21
-11.54900127981225
  0
LINE
  5
25F
100
AcDbEntity
  8
interior
  6
ByLayer
 62
  256
370
   -1
100
AcDbLine
 10
25.18066281078858
 20
-11.54900127981225
 11
25.0732162690373
 21
-11.54394497196512
  0
LINE
  5
260
100
AcDbEntity
  8
interior
  6
ByLayer
 62
  256
370
   -1
100
AcDbLine
 10
25.0732162690373
 20
-11.54394497196512
 11
25.0213891136044
 21
-11.54900127981225
  0
LINE
  5
261
100
AcDbEntity
  8
interior
  6
ByLayer
 62
  256
370
   -1
100
AcDbLine
 10
25.0213891136044
 20
-11.54900127981225
 11
24.97209011209495
 21
-11.54394497196512
  0
LINE
  5
262
100
AcDbEntity
  8
interior
  6
ByLayer
 62
  256
370
   -1
100
AcDbLine
 10
24.97209011209495
 20
-11.54394497196512
 11
24.9607134194389
 21
-11.56037797246825
  0
LINE
  5
263
100
AcDbEntity
  8
interior
  6
ByLayer
 62
  256
370
   -1
100
AcDbLine
 10
24.9607134194389
 20
-11.56037797246825
 11
24.96829788120955
 21
-11.63622259017495
  0
LINE
  5
264
100
AcDbEntity
  8
interior
  6
ByLayer
 62
  256
370
   -1
100
AcDbLine
 10
24.96829788120955
 20
-11.63622259017495
 11
24.9607134194389
 21
-11.72091574661425
  0
LINE
  5
265
100
AcDbEntity
  8
interior
  6
ByLayer
 62
  256
370
   -1
100
AcDbLine
 10
24.9607134194389
 20
-11.72091574661425
 11
24.96829788120955
 21
-11.80687298001517
  0
LINE
  5
266
100
AcDbEntity
  8
interior
  6
ByLayer
 62
  256
370
   -1
100
AcDbLine
 10
24.96829788120955
 20
-11.80687298001517
 11
24.96324157336247
 21
-11.86628459721885
  0
LINE
  5
267
100
AcDbEntity
  8
interior
  6
ByLayer
 62
  256
370
   -1
100
AcDbLine
 10
24.96324157336247
 20
-11.86628459721885
 11
24.97209011209495
 21
-12.0154456787088
  0
LINE
  5
268
100
AcDbEntity
  8
interior
  6
ByLayer
 62
  256
370
   -1
100
AcDbLine
 10
24.97209011209495
 20
-12.0154456787088
 11
24.96829788120955
 21
-12.12794852830717
  0
LINE
  5
269
100
AcDbEntity
  8
interior
  6
ByLayer
 62
  256
370
   -1
100
AcDbLine
 10
24.96829788120955
 20
-12.12794852830717
 11
24.96324157336247
 21
-12.22275430044066
  0
LINE
  5
26A
100
AcDbEntity
  8
interior
  6
ByLayer
 62
  256
370
   -1
100
AcDbLine
 10
24.96324157336247
 20
-12.22275430044066
 11
24.97335418905679
 21
-12.2568843784087
  0
LINE
  5
26B
100
AcDbEntity
  8
interior
  6
ByLayer
 62
  256
370
   -1
100
AcDbLine
 10
24.97335418905679
 20
-12.2568843784087
 11
24.96956195817141
 21
-12.27584553283538
  0
LINE
  5
26C
100
AcDbEntity
  8
interior
  6
ByLayer
 62
  256
370
   -1
100
AcDbLine
 10
24.96956195817141
 20
-12.27584553283538
 11
25.04287842195453
 21
-12.27963776372067
  0
LINE
  5
26D
100
AcDbEntity
  8
interior
  6
ByLayer
 62
  256
370
   -1
100
AcDbLine
 10
25.04287842195453
 20
-12.27963776372067
 11
25.0833288847315
 21
-12.28848630245312
  0
LINE
  5
26E
100
AcDbEntity
  8
interior
  6
ByLayer
 62
  256
370
   -1
100
AcDbLine
 10
25.0833288847315
 20
-12.28848630245312
 11
25.13642011712621
 21
-12.27837368675894
  0
LINE
  5
26F
100
AcDbEntity
  8
interior
  6
ByLayer
 62
  256
370
   -1
100
AcDbLine
 10
25.13642011712621
 20
-12.27837368675894
 11
25.19835988825344
 21
-12.27837368675894
  0
LINE
  5
270
100
AcDbEntity
  8
interior
  6
ByLayer
 62
  256
370
   -1
100
AcDbLine
 10
25.19835988825344
 20
-12.27837368675894
 11
25.24892296672459
 21
-12.27458145587354
  0
LINE
  5
271
100
AcDbEntity
  8
interior
  6
ByLayer
 62
  256
370
   -1
100
AcDbLine
 10
25.24892296672459
 20
-12.27458145587354
 11
25.32097535354603
 21
-12.28469407156773
  0
LINE
  5
272
100
AcDbEntity
  8
interior
  6
ByLayer
 62
  256
370
   -1
100
AcDbLine
 10
25.32097535354603
 20
-12.28469407156773
 11
25.38670735555861
 21
-12.27710960979711
  0
LINE
  5
273
100
AcDbEntity
  8
interior
  6
ByLayer
 62
  256
370
   -1
100
AcDbLine
 10
25.38670735555861
 20
-12.27710960979711
 11
25.51058689781291
 21
-12.28848630245312
  0
LINE
  5
274
100
AcDbEntity
  8
interior
  6
ByLayer
 62
  256
370
   -1
100
AcDbLine
 10
25.51058689781291
 20
-12.28848630245312
 11
25.59907228513748
 21
-12.27710960979711
  0
LINE
  5
275
100
AcDbEntity
  8
interior
  6
ByLayer
 62
  256
370
   -1
100
AcDbLine
 10
25.59907228513748
 20
-12.27710960979711
 11
25.69387805727098
 21
-12.27837368675894
  0
LINE
  5
276
100
AcDbEntity
  8
interior
  6
ByLayer
 62
  256
370
   -1
100
AcDbLine
 10
25.69387805727098
 20
-12.27837368675894
 11
25.70778290385061
 21
-12.26067660929408
  0
LINE
  5
277
100
AcDbEntity
  8
interior
  6
ByLayer
 62
  256
370
   -1
100
AcDbLine
 10
25.70778290385061
 20
-12.26067660929408
 11
25.7039906729652
 21
-12.22149022347882
  0
LINE
  5
278
100
AcDbEntity
  8
interior
  6
ByLayer
 62
  256
370
   -1
100
AcDbLine
 10
25.7039906729652
 20
-12.22149022347882
 11
25.71162586211224
 21
-12.17230480144474
  0
LINE
  5
279
100
AcDbEntity
  8
interior
  6
ByLayer
 62
  256
370
   -1
100
AcDbLine
 10
26.29274035046052
 20
-11.31558710197113
 11
26.15858291941336
 21
-11.31558710197113
  0
LINE
  5
27A
100
AcDbEntity
  8
interior
  6
ByLayer
 62
  256
370
   -1
100
AcDbLine
 10
26.29274035046052
 20
-11.78853135499673
 11
26.29274035046052
 21
-9.683581777083091
  0
LINE
  5
27B
100
AcDbEntity
  8
interior
  6
ByLayer
 62
  256
370
   -1
100
AcDbLine
 10
26.15858291941336
 20
-9.683581777083091
 11
26.15858291941336
 21
-11.78853135499673
  0
LINE
  5
27C
100
AcDbEntity
  8
interior
  6
ByLayer
 62
  256
370
   -1
100
AcDbLine
 10
26.15858291941336
 20
-9.787823441379842
 11
26.29274035046052
 21
-9.787823441379842
  0
LINE
  5
27D
100
AcDbEntity
  8
interior
  6
ByLayer
 62
  256
370
   -1
100
AcDbLine
 10
26.15858291941336
 20
-9.683581777083091
 11
26.29274035046052
 21
-9.683581777083091
  0
LINE
  5
27E
100
AcDbEntity
  8
exterior
  6
ByLayer
 62
  256
370
   -1
100
AcDbLine
 10
30.00869993923925
 20
-8.042700927826516
 11
23.53739386224926
 21
-7.794702234998113
  0
LINE
  5
27F
100
AcDbEntity
  8
exterior
  6
ByLayer
 62
  256
370
   -1
100
AcDbLine
 10
23.53739386224926
 20
-7.794702234998113
 11
23.5406027844566
 21
-1.656034052486405
  0
LINE
  5
280
100
AcDbEntity
  8
exterior
  6
ByLayer
 62
  256
370
   -1
100
AcDbLine
 10
23.5406027844566
 20
-1.656034052486405
 11
29.82117592481819
 21
-1.495549435056148
  0
LINE
  5
281
100
AcDbEntity
  8
exterior
  6
ByLayer
 62
  256
370
   -1
100
AcDbLine
 10
29.82117592481819
 20
-1.495549435056148
 11
30.00869993923925
 21
-8.042700927826516
  0
LINE
  5
282
100
AcDbEntity
  8
exterior
  6
ByLayer
 62
  256
370
   -1
100
AcDbLine
 10
23.27278091711408
 20
-3.884259163443716
 11
23.25891489231572
 21
-1.388374699715001
  0
LINE
  5
283
100
AcDbEntity
  8
exterior
  6
ByLayer
 62
  256
370
   -1
100
AcDbLine
 10
23.25891489231572
 20
-1.388374699715001
 11
24.44792651878645
 21
-1.343310119119877
  0
LINE
  5
284
100
AcDbEntity
  8
exterior
  6
ByLayer
 62
  256
370
   -1
100
AcDbLine
 10
23.53739386224926
 20
-7.794702234998113
 11
29.82117592481819
 21
-1.495549435056148
  0
LINE
  5
285
100
AcDbEntity
  8
exterior
  6
ByLayer
 62
  256
370
   -1
100
AcDbLine
 10
23.5406027844566
 20
-1.656034052486405
 11
30.00869993923925
 21
-8.042700927826516
  0
LINE
  5
286
100
AcDbEntity
  8
exterior
  6
ByLayer
 62
  256
370
   -1
100
AcDbLine
 10
30.78622164791909
 20
-5.819554110593785
 11
29.99813033547696
 21
-5.842790265985599
  0
LINE
  5
287
100
AcDbEntity
  8
exterior
  6
ByLayer
 62
  256
370
   -1
100
AcDbLine
 10
30.78319983318366
 20
-3.570462607515339
 11
29.94172603274731
 21
-3.594853152455457
  0
LWPOLYLINE
  5
288
100
AcDbEntity
  8
exterior
  6
ByLayer
 62
  256
370
   -1
100
AcDbPolyline
 90
   25
 70
    1
 43
0
 10
25.23411067697013
 20
-8.157508023251566
 10
25.22294073869597
 20
-8.342432556901173
 10
25.45502723394776
 20
-8.358566912186191
 10
26.15226337520085
 20
-8.551942226178483
 10
26.46971724008449
 20
-8.624010220973446
 10
26.59471046024115
 20
-8.638160396840192
 10
26.86592216435466
 20
-8.657027297995981
 10
27.20080965986884
 20
-8.664102385929368
 10
27.42949990390855
 20
-8.646744773190164
 10
27.70999117072077
 20
-8.594914865192379
 10
28.01792180059053
 20
-8.536987320959369
 10
28.29231543116748
 20
-8.509547957901702
 10
28.42951224645597
 20
-8.515645594136728
 10
28.44475633704374
 20
-8.308325962145318
 10
28.40817051963344
 20
-8.29613068967528
 10
28.30451070363765
 20
-8.305277144027784
 10
28.14902097964389
 20
-8.250398417912351
 10
27.73743053377845
 20
-8.174177964974177
 10
27.25571727120982
 20
-8.091859875800964
 10
26.85022446157936
 20
-8.070518148978607
 10
26.37467050878732
 20
-8.064790553992538
 10
25.90005238495118
 20
-8.086242220606593
 10
25.61554917578098
 20
-8.123877821316469
 10
25.47443562225099
 20
-8.136578041134214
 10
25.30368822247961
 20
-8.154922803093058
  0
LINE
  5
289
100
AcDbEntity
  8
exterior
  6
ByLayer
 62
  256
370
   -1
100
AcDbLine
 10
25.45502723394776
 20
-8.358566912186191
 11
25.47443562225099
 21
-8.136578041134214
  0
LINE
  5
28A
100
AcDbEntity
  8
exterior
  6
ByLayer
 62
  256
370
   -1
100
AcDbLine
 10
28.29231543116748
 20
-8.509547957901702
 11
28.30451070363765
 21
-8.305277144027784
  0
LINE
  5
28B
100
AcDbEntity
  8
interior
  6
ByLayer
 62
  256
370
   -1
100
AcDbLine
 10
26.93788953353464
 20
-1.945826210774158
 11
26.79835542624713
 21
-1.945826210774158
  0
LINE
  5
28C
100
AcDbEntity
  8
interior
  6
ByLayer
 62
  256
370
   -1
100
AcDbLine
 10
26.79758924488641
 20
-1.945826210774158
 11
26.79758924488641
 21
-4.327792786018833
  0
LINE
  5
28D
100
AcDbEntity
  8
interior
  6
ByLayer
 62
  256
370
   -1
100
AcDbLine
 10
26.79758924488641
 20
-4.327792786018833
 11
26.69021750233034
 21
-4.327792786018833
  0
LINE
  5
28E
100
AcDbEntity
  8
interior
  6
ByLayer
 62
  256
370
   -1
100
AcDbLine
 10
26.69021750233034
 20
-4.327792786018833
 11
26.69021750233034
 21
-4.783237976048213
  0
LINE
  5
28F
100
AcDbEntity
  8
interior
  6
ByLayer
 62
  256
370
   -1
100
AcDbLine
 10
26.69021750233034
 20
-4.783237976048213
 11
26.11494197602406
 21
-4.783237976048213
  0
LINE
  5
290
100
AcDbEntity
  8
interior
  6
ByLayer
 62
  256
370
   -1
100
AcDbLine
 10
26.11494197602406
 20
-4.783237976048213
 11
26.11494197602406
 21
-4.759803732258931
  0
LINE
  5
291
100
AcDbEntity
  8
interior
  6
ByLayer
 62
  256
370
   -1
100
AcDbLine
 10
26.11494197602406
 20
-4.759803732258931
 11
25.62319892001335
 21
-4.759803732258931
  0
LINE
  5
292
100
AcDbEntity
  8
interior
  6
ByLayer
 62
  256
370
   -1
100
AcDbLine
 10
25.62319892001335
 20
-4.759803732258931
 11
25.62319892001335
 21
-5.126004423179822
  0
LINE
  5
293
100
AcDbEntity
  8
interior
  6
ByLayer
 62
  256
370
   -1
100
AcDbLine
 10
25.62319892001335
 20
-5.126004423179822
 11
26.11233202970956
 21
-5.126004423179822
  0
LINE
  5
294
100
AcDbEntity
  8
interior
  6
ByLayer
 62
  256
370
   -1
100
AcDbLine
 10
26.11233202970956
 20
-5.126004423179822
 11
26.11233202970956
 21
-4.915691322940901
  0
LINE
  5
295
100
AcDbEntity
  8
interior
  6
ByLayer
 62
  256
370
   -1
100
AcDbLine
 10
26.11233202970956
 20
-4.915691322940901
 11
27.01224566698906
 21
-4.915691322940901
  0
LINE
  5
296
100
AcDbEntity
  8
interior
  6
ByLayer
 62
  256
370
   -1
100
AcDbLine
 10
27.01224566698906
 20
-4.915691322940901
 11
27.01224566698906
 21
-4.682513594326096
  0
LINE
  5
297
100
AcDbEntity
  8
interior
  6
ByLayer
 62
  256
370
   -1
100
AcDbLine
 10
27.01224566698906
 20
-4.682513594326096
 11
26.93865571489539
 21
-4.639239927505841
  0
LINE
  5
298
100
AcDbEntity
  8
interior
  6
ByLayer
 62
  256
370
   -1
100
AcDbLine
 10
26.93865571489539
 20
-4.639239927505841
 11
26.93865571489539
 21
-1.945826210774158
  0
LINE
  5
299
100
AcDbEntity
  8
interior
  6
ByLayer
 62
  256
370
   -1
100
AcDbLine
 10
26.61918642690179
 20
-4.702313967961885
 11
26.61918642690179
 21
-4.783237976048213
  0
LINE
  5
29A
100
AcDbEntity
  8
interior
  6
ByLayer
 62
  256
370
   -1
100
AcDbLine
 10
26.4847398338201
 20
-4.707945238876306
 11
26.4847398338201
 21
-4.783237976048213
  0
LINE
  5
29B
100
AcDbEntity
  8
interior
  6
ByLayer
 62
  256
370
   -1
100
AcDbLine
 10
26.3629636002959
 20
-4.712872600926502
 11
26.3629636002959
 21
-4.783237976048213
  0
LINE
  5
29C
100
AcDbEntity
  8
interior
  6
ByLayer
 62
  256
370
   -1
100
AcDbLine
 10
26.21866228311376
 20
-4.715688236383514
 11
26.21866228311376
 21
-4.783237976048213
  0
LINE
  5
29D
100
AcDbEntity
  8
interior
  6
ByLayer
 62
  256
370
   -1
100
AcDbLine
 10
26.221477918571
 20
-4.931788257724534
 11
26.22288573629956
 21
-4.958536794568047
  0
LINE
  5
29E
100
AcDbEntity
  8
interior
  6
ByLayer
 62
  256
370
   -1
100
AcDbLine
 10
26.22288573629956
 20
-4.958536794568047
 11
26.22218182743526
 21
-5.014145594847903
  0
LINE
  5
29F
100
AcDbEntity
  8
interior
  6
ByLayer
 62
  256
370
   -1
100
AcDbLine
 10
26.22218182743526
 20
-5.014145594847903
 11
26.22781309834966
 21
-5.081016936956686
  0
LINE
  5
2A0
100
AcDbEntity
  8
interior
  6
ByLayer
 62
  256
370
   -1
100
AcDbLine
 10
26.22781309834966
 20
-5.081016936956686
 11
26.21866228311376
 21
-5.137329646100781
  0
LINE
  5
2A1
100
AcDbEntity
  8
interior
  6
ByLayer
 62
  256
370
   -1
100
AcDbLine
 10
26.21866228311376
 20
-5.137329646100781
 11
26.219366191978
 21
-5.179564177959023
  0
LINE
  5
2A2
100
AcDbEntity
  8
interior
  6
ByLayer
 62
  256
370
   -1
100
AcDbLine
 10
26.219366191978
 20
-5.179564177959023
 11
26.22570137175668
 21
-5.209832259123942
  0
LINE
  5
2A3
100
AcDbEntity
  8
interior
  6
ByLayer
 62
  256
370
   -1
100
AcDbLine
 10
26.22570137175668
 20
-5.209832259123942
 11
26.21514273879234
 21
-5.233061251645935
  0
LINE
  5
2A4
100
AcDbEntity
  8
interior
  6
ByLayer
 62
  256
370
   -1
100
AcDbLine
 10
26.21514273879234
 20
-5.233061251645935
 11
26.12785803961873
 21
-5.239396431424893
  0
LINE
  5
2A5
100
AcDbEntity
  8
interior
  6
ByLayer
 62
  256
370
   -1
100
AcDbLine
 10
26.12785803961873
 20
-5.239396431424893
 11
26.06028278864557
 21
-5.229541707324515
  0
LINE
  5
2A6
100
AcDbEntity
  8
interior
  6
ByLayer
 62
  256
370
   -1
100
AcDbLine
 10
26.06028278864557
 20
-5.229541707324515
 11
26.00185835290844
 21
-5.237284704831879
  0
LINE
  5
2A7
100
AcDbEntity
  8
interior
  6
ByLayer
 62
  256
370
   -1
100
AcDbLine
 10
26.00185835290844
 20
-5.237284704831879
 11
25.93991437284993
 21
-5.238692522560456
  0
LINE
  5
2A8
100
AcDbEntity
  8
interior
  6
ByLayer
 62
  256
370
   -1
100
AcDbLine
 10
25.93991437284993
 20
-5.238692522560456
 11
25.91246192714212
 21
-5.230949525053191
  0
LINE
  5
2A9
100
AcDbEntity
  8
interior
  6
ByLayer
 62
  256
370
   -1
100
AcDbLine
 10
25.91246192714212
 20
-5.230949525053191
 11
25.84309643742486
 21
-5.23631759529232
  0
LINE
  5
2AA
100
AcDbEntity
  8
interior
  6
ByLayer
 62
  256
370
   -1
100
AcDbLine
 10
25.84309643742486
 20
-5.23631759529232
 11
25.76301718026843
 21
-5.2281276712649
  0
LINE
  5
2AB
100
AcDbEntity
  8
interior
  6
ByLayer
 62
  256
370
   -1
100
AcDbLine
 10
25.76301718026843
 20
-5.2281276712649
 11
25.70477772051834
 21
-5.234497612175133
  0
LINE
  5
2AC
100
AcDbEntity
  8
interior
  6
ByLayer
 62
  256
370
   -1
100
AcDbLine
 10
25.70477772051834
 20
-5.234497612175133
 11
25.61409949138175
 21
-5.226461749718595
  0
LINE
  5
2AD
100
AcDbEntity
  8
interior
  6
ByLayer
 62
  256
370
   -1
100
AcDbLine
 10
25.61409949138175
 20
-5.226461749718595
 11
25.54351495874891
 21
-5.229990976350294
  0
LINE
  5
2AE
100
AcDbEntity
  8
interior
  6
ByLayer
 62
  256
370
   -1
100
AcDbLine
 10
25.54351495874891
 20
-5.229990976350294
 11
25.50351705692358
 21
-5.22293252308701
  0
LINE
  5
2AF
100
AcDbEntity
  8
interior
  6
ByLayer
 62
  256
370
   -1
100
AcDbLine
 10
25.50351705692358
 20
-5.22293252308701
 11
25.5093991013097
 21
-5.152347990454174
  0
LINE
  5
2B0
100
AcDbEntity
  8
interior
  6
ByLayer
 62
  256
370
   -1
100
AcDbLine
 10
25.5093991013097
 20
-5.152347990454174
 11
25.50234064804651
 21
-5.054706053645376
  0
LINE
  5
2B1
100
AcDbEntity
  8
interior
  6
ByLayer
 62
  256
370
   -1
100
AcDbLine
 10
25.50234064804651
 20
-5.054706053645376
 11
25.50586987467811
 21
-4.98294511213534
  0
LINE
  5
2B2
100
AcDbEntity
  8
interior
  6
ByLayer
 62
  256
370
   -1
100
AcDbLine
 10
25.50586987467811
 20
-4.98294511213534
 11
25.51410473681862
 21
-4.928830303783528
  0
LINE
  5
2B3
100
AcDbEntity
  8
interior
  6
ByLayer
 62
  256
370
   -1
100
AcDbLine
 10
25.51410473681862
 20
-4.928830303783528
 11
25.50704628355531
 21
-4.859422180027892
  0
LINE
  5
2B4
100
AcDbEntity
  8
interior
  6
ByLayer
 62
  256
370
   -1
100
AcDbLine
 10
25.50704628355531
 20
-4.859422180027892
 11
25.51645755457301
 21
-4.74295770118357
  0
LINE
  5
2B5
100
AcDbEntity
  8
interior
  6
ByLayer
 62
  256
370
   -1
100
AcDbLine
 10
25.51645755457301
 20
-4.74295770118357
 11
25.50704628355531
 21
-4.661785488655823
  0
LINE
  5
2B6
100
AcDbEntity
  8
interior
  6
ByLayer
 62
  256
370
   -1
100
AcDbLine
 10
25.50704628355531
 20
-4.661785488655823
 11
25.52939805222229
 21
-4.648844991006683
  0
LINE
  5
2B7
100
AcDbEntity
  8
interior
  6
ByLayer
 62
  256
370
   -1
100
AcDbLine
 10
25.52939805222229
 20
-4.648844991006683
 11
25.60939385587284
 21
-4.652374217638126
  0
LINE
  5
2B8
100
AcDbEntity
  8
interior
  6
ByLayer
 62
  256
370
   -1
100
AcDbLine
 10
25.60939385587284
 20
-4.652374217638126
 11
25.70585938380452
 21
-4.644139355497629
  0
LINE
  5
2B9
100
AcDbEntity
  8
interior
  6
ByLayer
 62
  256
370
   -1
100
AcDbLine
 10
25.70585938380452
 20
-4.644139355497629
 11
25.79173723184107
 21
-4.654727035392668
  0
LINE
  5
2BA
100
AcDbEntity
  8
interior
  6
ByLayer
 62
  256
370
   -1
100
AcDbLine
 10
25.79173723184107
 20
-4.654727035392668
 11
25.84938126682448
 21
-4.640610128866143
  0
LINE
  5
2BB
100
AcDbEntity
  8
interior
  6
ByLayer
 62
  256
370
   -1
100
AcDbLine
 10
25.84938126682448
 20
-4.640610128866143
 11
25.91526016394855
 21
-4.653550626515312
  0
LINE
  5
2BC
100
AcDbEntity
  8
interior
  6
ByLayer
 62
  256
370
   -1
100
AcDbLine
 10
25.91526016394855
 20
-4.653550626515312
 11
25.98113906107247
 21
-4.640610128866143
  0
LINE
  5
2BD
100
AcDbEntity
  8
interior
  6
ByLayer
 62
  256
370
   -1
100
AcDbLine
 10
25.98113906107247
 20
-4.640610128866143
 11
26.01054928300275
 21
-4.585318911637032
  0
LINE
  5
2BE
100
AcDbEntity
  8
interior
  6
ByLayer
 62
  256
370
   -1
100
AcDbLine
 10
26.01054928300275
 20
-4.585318911637032
 11
26.0211369628978
 21
-4.524145650021978
  0
LINE
  5
2BF
100
AcDbEntity
  8
interior
  6
ByLayer
 62
  256
370
   -1
100
AcDbLine
 10
26.0211369628978
 20
-4.524145650021978
 11
26.04701795819642
 21
-4.457090344020742
  0
LINE
  5
2C0
100
AcDbEntity
  8
interior
  6
ByLayer
 62
  256
370
   -1
100
AcDbLine
 10
26.04701795819642
 20
-4.457090344020742
 11
26.06116590453513
 21
-4.445396612155804
  0
LINE
  5
2C1
100
AcDbEntity
  8
interior
  6
ByLayer
 62
  256
370
   -1
100
AcDbLine
 10
26.06116590453513
 20
-4.445396612155804
 11
26.10048299981571
 21
-4.474367103415361
  0
LINE
  5
2C2
100
AcDbEntity
  8
interior
  6
ByLayer
 62
  256
370
   -1
100
AcDbLine
 10
26.10048299981571
 20
-4.474367103415361
 11
26.10048299981571
 21
-4.520926821510827
  0
LINE
  5
2C3
100
AcDbEntity
  8
interior
  6
ByLayer
 62
  256
370
   -1
100
AcDbLine
 10
26.10048299981571
 20
-4.520926821510827
 11
26.11600290584767
 21
-4.585075766442429
  0
LINE
  5
2C4
100
AcDbEntity
  8
interior
  6
ByLayer
 62
  256
370
   -1
100
AcDbLine
 10
26.11600290584767
 20
-4.585075766442429
 11
26.14186941590074
 21
-4.640947428157176
  0
LINE
  5
2C5
100
AcDbEntity
  8
interior
  6
ByLayer
 62
  256
370
   -1
100
AcDbLine
 10
26.14186941590074
 20
-4.640947428157176
 11
26.20187971922385
 21
-4.656467334189131
  0
LINE
  5
2C6
100
AcDbEntity
  8
interior
  6
ByLayer
 62
  256
370
   -1
100
AcDbLine
 10
26.20187971922385
 20
-4.656467334189131
 11
26.22671156887498
 21
-4.66474461740593
  0
LINE
  5
2C7
100
AcDbEntity
  8
interior
  6
ByLayer
 62
  256
370
   -1
100
AcDbLine
 10
26.22671156887498
 20
-4.66474461740593
 11
26.22257292726636
 21
-4.696819089871809
  0
LINE
  5
2C8
100
AcDbEntity
  8
interior
  6
ByLayer
 62
  256
370
   -1
100
AcDbLine
 10
26.22257292726636
 20
-4.696819089871809
 11
26.24223147490667
 21
-4.707165693892946
  0
LINE
  5
2C9
100
AcDbEntity
  8
interior
  6
ByLayer
 62
  256
370
   -1
100
AcDbLine
 10
26.24223147490667
 20
-4.707165693892946
 11
26.28465255139378
 21
-4.705096373088764
  0
LINE
  5
2CA
100
AcDbEntity
  8
interior
  6
ByLayer
 62
  256
370
   -1
100
AcDbLine
 10
26.28465255139378
 20
-4.705096373088764
 11
26.35190547753163
 21
-4.704061712686809
  0
LINE
  5
2CB
100
AcDbEntity
  8
interior
  6
ByLayer
 62
  256
370
   -1
100
AcDbLine
 10
26.35190547753163
 20
-4.704061712686809
 11
26.39743053522514
 21
-4.706131033490834
  0
LINE
  5
2CC
100
AcDbEntity
  8
interior
  6
ByLayer
 62
  256
370
   -1
100
AcDbLine
 10
26.39743053522514
 20
-4.706131033490834
 11
26.44192093251641
 21
-4.694749769067485
  0
LINE
  5
2CD
100
AcDbEntity
  8
interior
  6
ByLayer
 62
  256
370
   -1
100
AcDbLine
 10
26.44192093251641
 20
-4.694749769067485
 11
26.48537666940561
 21
-4.695784429469597
  0
LINE
  5
2CE
100
AcDbEntity
  8
interior
  6
ByLayer
 62
  256
370
   -1
100
AcDbLine
 10
26.48537666940561
 20
-4.695784429469597
 11
26.55262959554372
 21
-4.697853750273865
  0
LINE
  5
2CF
100
AcDbEntity
  8
interior
  6
ByLayer
 62
  256
370
   -1
100
AcDbLine
 10
26.55262959554372
 20
-4.697853750273865
 11
26.5898773700201
 21
-4.68543782544846
  0
LINE
  5
2D0
100
AcDbEntity
  8
interior
  6
ByLayer
 62
  256
370
   -1
100
AcDbLine
 10
26.5898773700201
 20
-4.68543782544846
 11
26.62919446530083
 21
-4.690611127459121
  0
LINE
  5
2D1
100
AcDbEntity
  8
interior
  6
ByLayer
 62
  256
370
   -1
100
AcDbLine
 10
26.62919446530083
 20
-4.690611127459121
 11
26.68196214580911
 21
-4.684403165046248
  0
LINE
  5
2D2
100
AcDbEntity
  8
interior
  6
ByLayer
 62
  256
370
   -1
100
AcDbLine
 10
26.79758924488641
 20
-3.898947115988761
 11
26.93865571489539
 21
-3.898947115988761
  0
LINE
  5
2D3
100
AcDbEntity
  8
exterior
  6
ByLayer
 62
  256
370
   -1
100
AcDbLine
 10
29.44034030604979
 20
-20.59129273377205
 11
30.04848138986347
 21
-20.59129273377205
  0
LINE
  5
2D4
100
AcDbEntity
  8
exterior
  6
ByLayer
 62
  256
370
   -1
100
AcDbLine
 10
30.04848138986347
 20
-20.59129273377205
 11
30.04848138986347
 21
-19.77588723976062
  0
LINE
  5
2D5
100
AcDbEntity
  8
exterior
  6
ByLayer
 62
  256
370
   -1
100
AcDbLine
 10
30.04848138986347
 20
-19.77588723976062
 11
29.94919304964907
 21
-19.77588723976062
  0
LINE
  5
2D6
100
AcDbEntity
  8
exterior
  6
ByLayer
 62
  256
370
   -1
100
AcDbLine
 10
29.94919304964907
 20
-19.77588723976062
 11
29.94919304964907
 21
-19.79946822056159
  0
LINE
  5
2D7
100
AcDbEntity
  8
exterior
  6
ByLayer
 62
  256
370
   -1
100
AcDbLine
 10
29.94919304964907
 20
-19.79946822056159
 11
29.83252924989702
 21
-19.79946822056159
  0
LINE
  5
2D8
100
AcDbEntity
  8
exterior
  6
ByLayer
 62
  256
370
   -1
100
AcDbLine
 10
29.83252924989702
 20
-19.79946822056159
 11
29.83252924989702
 21
-20.37037617679484
  0
LINE
  5
2D9
100
AcDbEntity
  8
exterior
  6
ByLayer
 62
  256
370
   -1
100
AcDbLine
 10
29.83252924989702
 20
-20.37037617679484
 11
29.54583416752786
 21
-20.37037617679484
  0
LINE
  5
2DA
100
AcDbEntity
  8
exterior
  6
ByLayer
 62
  256
370
   -1
100
AcDbLine
 10
29.54583416752786
 20
-20.37037617679484
 11
29.54583416752786
 21
-20.27605225359102
  0
LINE
  5
2DB
100
AcDbEntity
  8
exterior
  6
ByLayer
 62
  256
370
   -1
100
AcDbLine
 10
29.54583416752786
 20
-20.27605225359102
 11
29.50840073689523
 21
-20.27605225359102
  0
LINE
  5
2DC
100
AcDbEntity
  8
exterior
  6
ByLayer
 62
  256
370
   -1
100
AcDbLine
 10
29.50840073689523
 20
-20.27605225359102
 11
29.50840073689523
 21
-20.2121449684207
  0
LINE
  5
2DD
100
AcDbEntity
  8
exterior
  6
ByLayer
 62
  256
370
   -1
100
AcDbLine
 10
29.50840073689523
 20
-20.2121449684207
 11
29.48018119225202
 21
-20.2121449684207
  0
LINE
  5
2DE
100
AcDbEntity
  8
exterior
  6
ByLayer
 62
  256
370
   -1
100
AcDbLine
 10
29.48018119225202
 20
-20.2121449684207
 11
29.48018119225202
 21
-20.15273540075034
  0
LINE
  5
2DF
100
AcDbEntity
  8
exterior
  6
ByLayer
 62
  256
370
   -1
100
AcDbLine
 10
29.48018119225202
 20
-20.15273540075034
 11
29.50840073689523
 21
-20.15273540075034
  0
LINE
  5
2E0
100
AcDbEntity
  8
exterior
  6
ByLayer
 62
  256
370
   -1
100
AcDbLine
 10
29.50840073689523
 20
-20.15273540075034
 11
29.50840073689523
 21
-20.10000940944296
  0
LINE
  5
2E1
100
AcDbEntity
  8
exterior
  6
ByLayer
 62
  256
370
   -1
100
AcDbLine
 10
29.50840073689523
 20
-20.10000940944296
 11
29.54583416752786
 21
-20.10000940944296
  0
LINE
  5
2E2
100
AcDbEntity
  8
exterior
  6
ByLayer
 62
  256
370
   -1
100
AcDbLine
 10
29.54583416752786
 20
-20.10000940944296
 11
29.54583416752786
 21
-19.59948380182013
  0
LINE
  5
2E3
100
AcDbEntity
  8
exterior
  6
ByLayer
 62
  256
370
   -1
100
AcDbLine
 10
29.54583416752786
 20
-19.59948380182013
 11
29.50840073689523
 21
-19.59948380182013
  0
LINE
  5
2E4
100
AcDbEntity
  8
exterior
  6
ByLayer
 62
  256
370
   -1
100
AcDbLine
 10
29.50840073689523
 20
-19.59948380182013
 11
29.50840073689523
 21
-19.53413327738269
  0
LINE
  5
2E5
100
AcDbEntity
  8
exterior
  6
ByLayer
 62
  256
370
   -1
100
AcDbLine
 10
29.50840073689523
 20
-19.53413327738269
 11
29.48018119225202
 21
-19.53413327738269
  0
LINE
  5
2E6
100
AcDbEntity
  8
exterior
  6
ByLayer
 62
  256
370
   -1
100
AcDbLine
 10
29.48018119225202
 20
-19.53413327738269
 11
29.48018119225202
 21
-19.47398109011651
  0
LINE
  5
2E7
100
AcDbEntity
  8
exterior
  6
ByLayer
 62
  256
370
   -1
100
AcDbLine
 10
29.48018119225202
 20
-19.47398109011651
 11
29.50840073689523
 21
-19.47398109011651
  0
LINE
  5
2E8
100
AcDbEntity
  8
exterior
  6
ByLayer
 62
  256
370
   -1
100
AcDbLine
 10
29.50840073689523
 20
-19.47398109011651
 11
29.50840073689523
 21
-19.41308628325444
  0
LINE
  5
2E9
100
AcDbEntity
  8
exterior
  6
ByLayer
 62
  256
370
   -1
100
AcDbLine
 10
29.50840073689523
 20
-19.41308628325444
 11
29.54583416752786
 21
-19.41308628325444
  0
LINE
  5
2EA
100
AcDbEntity
  8
exterior
  6
ByLayer
 62
  256
370
   -1
100
AcDbLine
 10
29.54583416752786
 20
-19.41308628325444
 11
29.54583416752786
 21
-19.30614906144775
  0
LINE
  5
2EB
100
AcDbEntity
  8
exterior
  6
ByLayer
 62
  256
370
   -1
100
AcDbLine
 10
29.54583416752786
 20
-19.30614906144775
 11
29.83252924989702
 21
-19.30614906144775
  0
LINE
  5
2EC
100
AcDbEntity
  8
exterior
  6
ByLayer
 62
  256
370
   -1
100
AcDbLine
 10
29.83252924989702
 20
-19.30614906144775
 11
29.83252924989702
 21
-19.63203578918589
  0
LINE
  5
2ED
100
AcDbEntity
  8
exterior
  6
ByLayer
 62
  256
370
   -1
100
AcDbLine
 10
29.83252924989702
 20
-19.63203578918589
 11
29.94919304964907
 21
-19.63203578918589
  0
LINE
  5
2EE
100
AcDbEntity
  8
exterior
  6
ByLayer
 62
  256
370
   -1
100
AcDbLine
 10
29.94919304964907
 20
-19.63203578918589
 11
29.94919304964907
 21
-19.64976731727664
  0
LINE
  5
2EF
100
AcDbEntity
  8
exterior
  6
ByLayer
 62
  256
370
   -1
100
AcDbLine
 10
29.94919304964907
 20
-19.64976731727664
 11
30.04848138986347
 21
-19.64976731727664
  0
LINE
  5
2F0
100
AcDbEntity
  8
exterior
  6
ByLayer
 62
  256
370
   -1
100
AcDbLine
 10
30.04848138986347
 20
-19.64976731727664
 11
30.04848138986347
 21
-19.0731430899143
  0
LINE
  5
2F1
100
AcDbEntity
  8
exterior
  6
ByLayer
 62
  256
370
   -1
100
AcDbLine
 10
30.04848138986347
 20
-19.0731430899143
 11
29.44034030604979
 21
-19.0731430899143
  0
LINE
  5
2F2
100
AcDbEntity
  8
exterior
  6
ByLayer
 62
  256
370
   -1
100
AcDbLine
 10
29.44034030604979
 20
-19.0731430899143
 11
29.44034030604979
 21
-20.59129273377205
  0
LINE
  5
2F3
100
AcDbEntity
  8
exterior
  6
ByLayer
 62
  256
370
   -1
100
AcDbLine
 10
29.5113712152791
 20
-23.09981264929111
 11
29.50202171628607
 21
-20.59129273377205
  0
LINE
  5
2F4
100
AcDbEntity
  8
exterior
  6
ByLayer
 62
  256
370
   -1
100
AcDbLine
 10
29.5113712152791
 20
-23.09981264929111
 11
22.92764877644174
 21
-23.09870341876689
  0
LINE
  5
2F5
100
AcDbEntity
  8
exterior
  6
ByLayer
 62
  256
370
   -1
100
AcDbLine
 10
22.97497165959203
 20
-16.6548277868895
 11
29.5113712152791
 21
-23.09981264929111
  0
LINE
  5
2F6
100
AcDbEntity
  8
exterior
  6
ByLayer
 62
  256
370
   -1
100
AcDbLine
 10
22.92764877644174
 20
-23.09870341876689
 11
22.97497165959203
 21
-16.6548277868895
  0
LINE
  5
2F7
100
AcDbEntity
  8
exterior
  6
ByLayer
 62
  256
370
   -1
100
AcDbLine
 10
29.41437195743234
 20
-16.66517573338049
 11
29.44073164947991
 21
-23.03016101181353
  0
LINE
  5
2F8
100
AcDbEntity
  8
exterior
  6
ByLayer
 62
  256
370
   -1
100
AcDbLine
 10
29.44073164947991
 20
-23.03016101181353
 11
22.99536035354808
 21
-23.03154712216235
  0
LINE
  5
2F9
100
AcDbEntity
  8
exterior
  6
ByLayer
 62
  256
370
   -1
100
AcDbLine
 10
27.46946675279185
 20
-22.97173069041342
 11
29.37872558344441
 21
-22.96902213045068
  0
LINE
  5
2FA
100
AcDbEntity
  8
exterior
  6
ByLayer
 62
  256
370
   -1
100
AcDbLine
 10
28.06346718831409
 20
-22.9073157307856
 11
29.31677384614119
 21
-22.90793681800656
  0
LINE
  5
2FB
100
AcDbEntity
  8
exterior
  6
ByLayer
 62
  256
370
   -1
100
AcDbLine
 10
28.04787741052576
 20
-22.84735288298627
 11
29.26170887352231
 21
-22.85364195552849
  0
LINE
  5
2FC
100
AcDbEntity
  8
exterior
  6
ByLayer
 62
  256
370
   -1
100
AcDbLine
 10
29.41437195743234
 20
-16.66517573338049
 11
22.92764877644174
 21
-23.09870341876689
  0
LINE
  5
2FD
100
AcDbEntity
  8
exterior
  6
ByLayer
 62
  256
370
   -1
100
AcDbLine
 10
29.37872558344441
 20
-22.96902213045068
 11
29.35698936370915
 21
-16.72200911151401
  0
LINE
  5
2FE
100
AcDbEntity
  8
exterior
  6
ByLayer
 62
  256
370
   -1
100
AcDbLine
 10
29.31677384614119
 20
-22.90793681800656
 11
29.29299532187531
 21
-16.78544225314565
  0
LINE
  5
2FF
100
AcDbEntity
  8
exterior
  6
ByLayer
 62
  256
370
   -1
100
AcDbLine
 10
29.26170887352231
 20
-22.85364195552849
 11
29.23329196506808
 21
-16.84464980074225
  0
LINE
  5
300
100
AcDbEntity
  8
exterior
  6
ByLayer
 62
  256
370
   -1
100
AcDbLine
 10
23.11431523317259
 20
-16.79222257353766
 11
29.29299576581414
 21
-16.78555655854198
  0
LINE
  5
301
100
AcDbEntity
  8
exterior
  6
ByLayer
 62
  256
370
   -1
100
AcDbLine
 10
22.99536035354808
 20
-23.03154712216235
 11
22.99536035354808
 21
-22.21679893884348
  0
LINE
  5
302
100
AcDbEntity
  8
exterior
  6
ByLayer
 62
  256
370
   -1
100
AcDbLine
 10
23.11431523317259
 20
-16.79222257353766
 11
23.11431523317259
 21
-17.42516380908175
  0
LINE
  5
303
100
AcDbEntity
  8
exterior
  6
ByLayer
 62
  256
370
   -1
100
AcDbLine
 10
29.41437195743234
 20
-16.66517573338049
 11
28.9267872076409
 21
-16.66517573338049
  0
LINE
  5
304
100
AcDbEntity
  8
exterior
  6
ByLayer
 62
  256
370
   -1
100
AcDbLine
 10
29.35698936370915
 20
-16.72200911151401
 11
28.00604413614977
 21
-16.72200911151401
  0
LINE
  5
305
100
AcDbEntity
  8
interior
  6
ByLayer
 62
  256
370
   -1
100
AcDbLine
 10
26.22761325475898
 20
-18.8375687542666
 11
26.0763959150766
 21
-18.8375687542666
  0
LINE
  5
306
100
AcDbEntity
  8
interior
  6
ByLayer
 62
  256
370
   -1
100
AcDbLine
 10
26.0763959150766
 20
-18.8375687542666
 11
26.0763959150766
 21
-19.15260147840957
  0
LINE
  5
307
100
AcDbEntity
  8
interior
  6
ByLayer
 62
  256
370
   -1
100
AcDbLine
 10
26.0763959150766
 20
-19.15260147840957
 11
25.67912816341936
 21
-19.16212222902521
  0
LINE
  5
308
100
AcDbEntity
  8
interior
  6
ByLayer
 62
  256
370
   -1
100
AcDbLine
 10
25.67912816341936
 20
-19.16212222902521
 11
25.67912816341936
 21
-18.93571748079559
  0
LINE
  5
309
100
AcDbEntity
  8
interior
  6
ByLayer
 62
  256
370
   -1
100
AcDbLine
 10
25.67912816341936
 20
-18.93571748079559
 11
25.16198507729922
 21
-18.93571748079559
  0
LINE
  5
30A
100
AcDbEntity
  8
interior
  6
ByLayer
 62
  256
370
   -1
100
AcDbLine
 10
25.16198507729922
 20
-18.93571748079559
 11
25.16198507729922
 21
-19.34700292294794
  0
LINE
  5
30B
100
AcDbEntity
  8
interior
  6
ByLayer
 62
  256
370
   -1
100
AcDbLine
 10
25.16198507729922
 20
-19.34700292294794
 11
25.25717901402012
 21
-19.34700292294794
  0
LINE
  5
30C
100
AcDbEntity
  8
interior
  6
ByLayer
 62
  256
370
   -1
100
AcDbLine
 10
25.25717901402012
 20
-19.34700292294794
 11
25.25717901402012
 21
-19.3408305171139
  0
LINE
  5
30D
100
AcDbEntity
  8
interior
  6
ByLayer
 62
  256
370
   -1
100
AcDbLine
 10
25.25717901402012
 20
-19.3408305171139
 11
25.67912816341936
 21
-19.3408305171139
  0
LINE
  5
30E
100
AcDbEntity
  8
interior
  6
ByLayer
 62
  256
370
   -1
100
AcDbLine
 10
25.67912816341936
 20
-19.3408305171139
 11
25.67912816341936
 21
-19.29573814601318
  0
LINE
  5
30F
100
AcDbEntity
  8
interior
  6
ByLayer
 62
  256
370
   -1
100
AcDbLine
 10
25.67912816341936
 20
-19.29573814601318
 11
26.43684794938474
 21
-19.29573814601318
  0
LINE
  5
310
100
AcDbEntity
  8
interior
  6
ByLayer
 62
  256
370
   -1
100
AcDbLine
 10
26.43684794938474
 20
-19.29573814601318
 11
26.43684794938474
 21
-18.8375687542666
  0
LINE
  5
311
100
AcDbEntity
  8
interior
  6
ByLayer
 62
  256
370
   -1
100
AcDbLine
 10
26.43684794938474
 20
-18.8375687542666
 11
26.36195168744612
 21
-18.8375687542666
  0
LINE
  5
312
100
AcDbEntity
  8
interior
  6
DOTTINY
 62
  256
370
   -1
100
AcDbLine
 10
26.36195168744612
 20
-16.8452095567983
 11
26.22761325475898
 21
-16.8452095567983
  0
LINE
  5
313
100
AcDbEntity
  8
interior
  6
ByLayer
 62
  256
370
   -1
100
AcDbLine
 10
25.76163530499736
 20
-19.15339232359153
 11
25.75850075283708
 21
-19.12439771610852
  0
LINE
  5
314
100
AcDbEntity
  8
interior
  6
ByLayer
 62
  256
370
   -1
100
AcDbLine
 10
25.75850075283708
 20
-19.12439771610852
 11
25.76241894303755
 21
-19.06170667290223
  0
LINE
  5
315
100
AcDbEntity
  8
interior
  6
ByLayer
 62
  256
370
   -1
100
AcDbLine
 10
25.76241894303755
 20
-19.06170667290223
 11
25.75850075283708
 21
-19.02487568501844
  0
LINE
  5
316
100
AcDbEntity
  8
interior
  6
ByLayer
 62
  256
370
   -1
100
AcDbLine
 10
25.75850075283708
 20
-19.02487568501844
 11
25.76398621911764
 21
-18.96296827985223
  0
LINE
  5
317
100
AcDbEntity
  8
interior
  6
ByLayer
 62
  256
370
   -1
100
AcDbLine
 10
25.76398621911764
 20
-18.96296827985223
 11
25.75458256263673
 21
-18.9277045680486
  0
LINE
  5
318
100
AcDbEntity
  8
interior
  6
ByLayer
 62
  256
370
   -1
100
AcDbLine
 10
25.75458256263673
 20
-18.9277045680486
 11
25.76163530499736
 21
-18.85247531620099
  0
LINE
  5
319
100
AcDbEntity
  8
interior
  6
ByLayer
 62
  256
370
   -1
100
AcDbLine
 10
25.76163530499736
 20
-18.85247531620099
 11
25.75536620067678
 21
-18.78586608279426
  0
LINE
  5
31A
100
AcDbEntity
  8
interior
  6
ByLayer
 62
  256
370
   -1
100
AcDbLine
 10
25.75536620067678
 20
-18.78586608279426
 11
25.76398621911764
 21
-18.723175039588
  0
LINE
  5
31B
100
AcDbEntity
  8
interior
  6
ByLayer
 62
  256
370
   -1
100
AcDbLine
 10
25.76398621911764
 20
-18.723175039588
 11
25.74596254419586
 21
-18.70436772662607
  0
LINE
  5
31C
100
AcDbEntity
  8
interior
  6
ByLayer
 62
  256
370
   -1
100
AcDbLine
 10
25.74596254419586
 20
-18.70436772662607
 11
25.65897872174699
 21
-18.70515136466611
  0
LINE
  5
31D
100
AcDbEntity
  8
interior
  6
ByLayer
 62
  256
370
   -1
100
AcDbLine
 10
25.65897872174699
 20
-18.70515136466611
 11
25.51870751257287
 21
-18.7067186407463
  0
LINE
  5
31E
100
AcDbEntity
  8
interior
  6
ByLayer
 62
  256
370
   -1
100
AcDbLine
 10
25.51870751257287
 20
-18.7067186407463
 11
25.41213273912201
 21
-18.71455502114699
  0
LINE
  5
31F
100
AcDbEntity
  8
interior
  6
ByLayer
 62
  256
370
   -1
100
AcDbLine
 10
25.41213273912201
 20
-18.71455502114699
 11
25.29474916515707
 21
-18.70750341546513
  0
LINE
  5
320
100
AcDbEntity
  8
interior
  6
ByLayer
 62
  256
370
   -1
100
AcDbLine
 10
25.29474916515707
 20
-18.70750341546513
 11
25.19568984227084
 21
-18.70980712064843
  0
LINE
  5
321
100
AcDbEntity
  8
interior
  6
ByLayer
 62
  256
370
   -1
100
AcDbLine
 10
25.19568984227084
 20
-18.70980712064843
 11
25.11736386603522
 21
-18.70635156287337
  0
LINE
  5
322
100
AcDbEntity
  8
interior
  6
ByLayer
 62
  256
370
   -1
100
AcDbLine
 10
25.11736386603522
 20
-18.70635156287337
 11
25.06207494163358
 21
-18.71326267842353
  0
LINE
  5
323
100
AcDbEntity
  8
interior
  6
ByLayer
 62
  256
370
   -1
100
AcDbLine
 10
25.06207494163358
 20
-18.71326267842353
 11
25.06207494163358
 21
-18.79619606502595
  0
LINE
  5
324
100
AcDbEntity
  8
interior
  6
ByLayer
 62
  256
370
   -1
100
AcDbLine
 10
25.06207494163358
 20
-18.79619606502595
 11
25.06668235200038
 21
-18.82614423241019
  0
LINE
  5
325
100
AcDbEntity
  8
interior
  6
ByLayer
 62
  256
370
   -1
100
AcDbLine
 10
25.06668235200038
 20
-18.82614423241019
 11
25.0596176122324
 21
-18.94921705190528
  0
LINE
  5
326
100
AcDbEntity
  8
interior
  6
ByLayer
 62
  256
370
   -1
100
AcDbLine
 10
25.0596176122324
 20
-18.94921705190528
 11
25.06857741392194
 21
-19.09119544790906
  0
LINE
  5
327
100
AcDbEntity
  8
interior
  6
ByLayer
 62
  256
370
   -1
100
AcDbLine
 10
25.06857741392194
 20
-19.09119544790906
 11
25.06237447429072
 21
-19.19319934406715
  0
LINE
  5
328
100
AcDbEntity
  8
interior
  6
ByLayer
 62
  256
370
   -1
100
AcDbLine
 10
25.06237447429072
 20
-19.19319934406715
 11
25.06857741392194
 21
-19.25936403346708
  0
LINE
  5
329
100
AcDbEntity
  8
interior
  6
ByLayer
 62
  256
370
   -1
100
AcDbLine
 10
25.06857741392194
 20
-19.25936403346708
 11
25.06237447429072
 21
-19.31381205911897
  0
LINE
  5
32A
100
AcDbEntity
  8
interior
  6
ByLayer
 62
  256
370
   -1
100
AcDbLine
 10
25.06237447429072
 20
-19.31381205911897
 11
25.06926662943651
 21
-19.35654342102312
  0
LINE
  5
32B
100
AcDbEntity
  8
interior
  6
ByLayer
 62
  256
370
   -1
100
AcDbLine
 10
25.06926662943651
 20
-19.35654342102312
 11
25.06788819840736
 21
-19.42201889490831
  0
LINE
  5
32C
100
AcDbEntity
  8
interior
  6
ByLayer
 62
  256
370
   -1
100
AcDbLine
 10
25.06788819840736
 20
-19.42201889490831
 11
25.11613328442809
 21
-19.42546497248119
  0
LINE
  5
32D
100
AcDbEntity
  8
interior
  6
ByLayer
 62
  256
370
   -1
100
AcDbLine
 10
25.11613328442809
 20
-19.42546497248119
 11
25.15955386184676
 21
-19.42270811042289
  0
LINE
  5
32E
100
AcDbEntity
  8
interior
  6
ByLayer
 62
  256
370
   -1
100
AcDbLine
 10
25.15955386184676
 20
-19.42270811042289
 11
25.23605678396534
 21
-19.42546497248119
  0
LINE
  5
32F
100
AcDbEntity
  8
interior
  6
ByLayer
 62
  256
370
   -1
100
AcDbLine
 10
25.23605678396534
 20
-19.42546497248119
 11
25.31049205954007
 21
-19.41926203284999
  0
LINE
  5
330
100
AcDbEntity
  8
interior
  6
ByLayer
 62
  256
370
   -1
100
AcDbLine
 10
25.31049205954007
 20
-19.41926203284999
 11
25.36287243864828
 21
-19.42684340351035
  0
LINE
  5
331
100
AcDbEntity
  8
interior
  6
ByLayer
 62
  256
370
   -1
100
AcDbLine
 10
25.36287243864828
 20
-19.42684340351035
 11
25.43196896883056
 21
-19.41985276635968
  0
LINE
  5
332
100
AcDbEntity
  8
interior
  6
ByLayer
 62
  256
370
   -1
100
AcDbLine
 10
25.43196896883056
 20
-19.41985276635968
 11
25.43820594399153
 21
-19.44390967055216
  0
LINE
  5
333
100
AcDbEntity
  8
interior
  6
ByLayer
 62
  256
370
   -1
100
AcDbLine
 10
25.43820594399153
 20
-19.44390967055216
 11
25.48097377366686
 21
-19.44747365635833
  0
LINE
  5
334
100
AcDbEntity
  8
interior
  6
ByLayer
 62
  256
370
   -1
100
AcDbLine
 10
25.48097377366686
 20
-19.44747365635833
 11
25.59145733366165
 21
-19.45103764216475
  0
LINE
  5
335
100
AcDbEntity
  8
interior
  6
ByLayer
 62
  256
370
   -1
100
AcDbLine
 10
25.59145733366165
 20
-19.45103764216475
 11
25.67877498591545
 21
-19.44836465280996
  0
LINE
  5
336
100
AcDbEntity
  8
interior
  6
ByLayer
 62
  256
370
   -1
100
AcDbLine
 10
25.67877498591545
 20
-19.44836465280996
 11
25.70550487946258
 21
-19.43945468829422
  0
LINE
  5
337
100
AcDbEntity
  8
interior
  6
ByLayer
 62
  256
370
   -1
100
AcDbLine
 10
25.70550487946258
 20
-19.43945468829422
 11
25.70728687236573
 21
-19.42430774861748
  0
LINE
  5
338
100
AcDbEntity
  8
interior
  6
ByLayer
 62
  256
370
   -1
100
AcDbLine
 10
25.70728687236573
 20
-19.42430774861748
 11
25.7473817126864
 21
-19.42252575571433
  0
LINE
  5
339
100
AcDbEntity
  8
interior
  6
ByLayer
 62
  256
370
   -1
100
AcDbLine
 10
25.7473817126864
 20
-19.42252575571433
 11
25.76074665945998
 21
-19.41450678765023
  0
LINE
  5
33A
100
AcDbEntity
  8
interior
  6
ByLayer
 62
  256
370
   -1
100
AcDbLine
 10
25.76074665945998
 20
-19.41450678765023
 11
25.75540068075051
 21
-19.361047000556
  0
LINE
  5
33B
100
AcDbEntity
  8
interior
  6
ByLayer
 62
  256
370
   -1
100
AcDbLine
 10
25.75540068075051
 20
-19.361047000556
 11
25.76431064526628
 21
-19.31827917088067
  0
LINE
  5
33C
100
AcDbEntity
  8
interior
  6
ByLayer
 62
  256
370
   -1
100
AcDbLine
 10
25.76431064526628
 20
-19.31827917088067
 11
25.75896466655684
 21
-19.29956824539767
  0
LINE
  5
33D
100
AcDbEntity
  8
interior
  6
ByLayer
 62
  256
370
   -1
100
AcDbLine
 10
26.22761325475898
 20
-16.78886371865134
 11
26.22761325475898
 21
-18.8375687542666
  0
LINE
  5
33E
100
AcDbEntity
  8
interior
  6
ByLayer
 62
  256
370
   -1
100
AcDbLine
 10
26.36195168744612
 20
-18.8375687542666
 11
26.36195168744612
 21
-16.78871878446967
  0
LINE
  5
33F
100
AcDbEntity
  8
interior
  6
ByLayer
 62
  256
370
   -1
100
AcDbLine
 10
1.054883274376337
 20
5.680281349277294
 11
0.9103054017114118
 21
5.680281349277294
  0
LINE
  5
340
100
AcDbEntity
  8
interior
  6
ByLayer
 62
  256
370
   -1
100
AcDbLine
 10
0.9103054017114118
 20
10.49818623272955
 11
1.054883274376337
 21
10.49818623272955
  0
LINE
  5
341
100
AcDbEntity
  8
interior
  6
ByLayer
 62
  256
370
   -1
100
AcDbLine
 10
0.9103054017114118
 20
10.30677327455351
 11
1.054883274376337
 21
10.30677327455351
  0
LINE
  5
342
100
AcDbEntity
  8
interior
  6
ByLayer
 62
  256
370
   -1
100
AcDbLine
 10
0.9103054017114118
 20
5.680281349277294
 11
0.8390346194118337
 21
5.680281349277294
  0
LINE
  5
343
100
AcDbEntity
  8
interior
  6
ByLayer
 62
  256
370
   -1
100
AcDbLine
 10
0.8390346194118337
 20
5.680281349277294
 11
0.8390346194118337
 21
-0.2148305009316118
  0
LINE
  5
344
100
AcDbEntity
  8
interior
  6
ByLayer
 62
  256
370
   -1
100
AcDbLine
 10
0.8390346194118337
 20
-0.2148305009316118
 11
1.126154056675915
 21
-0.2148305009316118
  0
LINE
  5
345
100
AcDbEntity
  8
interior
  6
ByLayer
 62
  256
370
   -1
100
AcDbLine
 10
1.126154056675915
 20
-0.2148305009316118
 11
1.126154056675915
 21
5.680281349277294
  0
LINE
  5
346
100
AcDbEntity
  8
interior
  6
ByLayer
 62
  256
370
   -1
100
AcDbLine
 10
0.1914886545184089
 20
0.3594083735964944
 11
1.054883274376337
 21
0.3594083735964944
  0
LINE
  5
347
100
AcDbEntity
  8
interior
  6
ByLayer
 62
  256
370
   -1
100
AcDbLine
 10
1.054883274376337
 20
0.3594083735964944
 11
1.054883274376337
 21
-0.357372065530825
  0
LINE
  5
348
100
AcDbEntity
  8
interior
  6
ByLayer
 62
  256
370
   -1
100
AcDbLine
 10
1.054883274376337
 20
-0.357372065530825
 11
0.1914886545184089
 21
-0.3594083735964944
  0
LINE
  5
349
100
AcDbEntity
  8
interior
  6
ByLayer
 62
  256
370
   -1
100
AcDbLine
 10
0.1914886545184089
 20
-0.3594083735964944
 11
0.1914886545184089
 21
0.3594083735964944
  0
LINE
  5
34A
100
AcDbEntity
  8
interior
  6
ByLayer
 62
  256
370
   -1
100
AcDbLine
 10
1.054883274376337
 20
-0.1944674202746057
 11
1.197424838975508
 21
-0.1944674202746057
  0
LINE
  5
34B
100
AcDbEntity
  8
interior
  6
ByLayer
 62
  256
370
   -1
100
AcDbLine
 10
1.197424838975508
 20
-0.1944674202746057
 11
1.197424838975508
 21
0.02138123468986919
  0
LINE
  5
34C
100
AcDbEntity
  8
interior
  6
ByLayer
 62
  256
370
   -1
100
AcDbLine
 10
1.197424838975508
 20
0.02138123468986919
 11
1.054883274376337
 21
0.02138123468986919
  0
LINE
  5
34D
100
AcDbEntity
  8
interior
  6
ByLayer
 62
  256
370
   -1
100
AcDbLine
 10
1.197424838975508
 20
0.005090770164258629
 11
1.054883274376337
 21
0.005090770164258629
  0
LINE
  5
34E
100
AcDbEntity
  8
interior
  6
ByLayer
 62
  256
370
   -1
100
AcDbLine
 10
1.197424838975508
 20
-0.01323600242707812
 11
1.054883274376337
 21
-0.01323600242707812
  0
LINE
  5
34F
100
AcDbEntity
  8
interior
  6
ByLayer
 62
  256
370
   -1
100
AcDbLine
 10
1.197424838975508
 20
-0.03359908308411264
 11
1.054883274376337
 21
-0.03359908308411264
  0
LINE
  5
350
100
AcDbEntity
  8
interior
  6
ByLayer
 62
  256
370
   -1
100
AcDbLine
 10
1.197424838975508
 20
-0.05192585567542096
 11
1.054883274376337
 21
-0.05192585567542096
  0
LINE
  5
351
100
AcDbEntity
  8
interior
  6
ByLayer
 62
  256
370
   -1
100
AcDbLine
 10
1.054883274376337
 20
-1.870348958347833
 11
-0.3868228361411212
 21
-1.870348958347833
  0
LINE
  5
352
100
AcDbEntity
  8
interior
  6
ByLayer
 62
  256
370
   -1
100
AcDbLine
 10
-0.3868228361411212
 20
-1.870348958347833
 11
-0.3868228361411212
 21
-1.15153221115483
  0
LINE
  5
353
100
AcDbEntity
  8
interior
  6
ByLayer
 62
  256
370
   -1
100
AcDbLine
 10
-0.3868228361411212
 20
-1.15153221115483
 11
1.054883274376337
 21
-1.15153221115483
  0
LINE
  5
354
100
AcDbEntity
  8
interior
  6
ByLayer
 62
  256
370
   -1
100
AcDbLine
 10
0.7107472112726043
 20
-1.15153221115483
 11
0.7107472112726043
 21
-0.7890693754597606
  0
LINE
  5
355
100
AcDbEntity
  8
interior
  6
ByLayer
 62
  256
370
   -1
100
AcDbLine
 10
0.7107472112726043
 20
-0.7890693754597606
 11
0.5641330305420098
 21
-0.5284219430498354
  0
LINE
  5
356
100
AcDbEntity
  8
interior
  6
ByLayer
 62
  256
370
   -1
100
AcDbLine
 10
0.5641330305420098
 20
-0.5284219430498354
 11
0.2627594368180013
 21
-0.3207185203481799
  0
LINE
  5
357
100
AcDbEntity
  8
interior
  6
ByLayer
 62
  256
370
   -1
100
AcDbLine
 10
0.2627594368180013
 20
-0.3207185203481799
 11
0.08356432703617145
 21
-0.1109787895807983
  0
LINE
  5
358
100
AcDbEntity
  8
interior
  6
ByLayer
 62
  256
370
   -1
100
AcDbLine
 10
0.08356432703617145
 20
-0.1109787895807983
 11
0.06931017057625866
 21
0.2372298896543157
  0
LINE
  5
359
100
AcDbEntity
  8
interior
  6
ByLayer
 62
  256
370
   -1
100
AcDbLine
 10
0.06931017057625866
 20
0.2372298896543157
 11
0.07745540283909236
 21
0.4673327010787602
  0
LINE
  5
35A
100
AcDbEntity
  8
interior
  6
ByLayer
 62
  256
370
   -1
100
AcDbLine
 10
0.07745540283909236
 20
0.4673327010787602
 11
0.1914886545184089
 21
3.949419493430128
  0
LINE
  5
35B
100
AcDbEntity
  8
interior
  6
ByLayer
 62
  256
370
   -1
100
AcDbLine
 10
0.1914886545184089
 20
3.949419493430128
 11
0.1914886545184089
 21
7.115878535597602
  0
LINE
  5
35C
100
AcDbEntity
  8
interior
  6
ByLayer
 62
  256
370
   -1
100
AcDbLine
 10
0.1914886545184089
 20
7.115878535597602
 11
0.1609440335328713
 21
7.1179148436633
  0
LINE
  5
35D
100
AcDbEntity
  8
interior
  6
ByLayer
 62
  256
370
   -1
100
AcDbLine
 10
0.1609440335328713
 20
7.1179148436633
 11
0.1609440335328713
 21
3.949419493430128
  0
LINE
  5
35E
100
AcDbEntity
  8
interior
  6
ByLayer
 62
  256
370
   -1
100
AcDbLine
 10
0.1609440335328713
 20
3.949419493430128
 11
0.03672924152503754
 21
0.2372298896543157
  0
LINE
  5
35F
100
AcDbEntity
  8
interior
  6
ByLayer
 62
  256
370
   -1
100
AcDbLine
 10
0.03672924152503754
 20
0.2372298896543157
 11
0.04487447378785703
 21
-0.104869865383705
  0
LINE
  5
360
100
AcDbEntity
  8
interior
  6
ByLayer
 62
  256
370
   -1
100
AcDbLine
 10
0.04487447378785703
 20
-0.104869865383705
 11
0.2444326642266788
 21
-0.3431179090709122
  0
LINE
  5
361
100
AcDbEntity
  8
interior
  6
ByLayer
 62
  256
370
   -1
100
AcDbLine
 10
0.2444326642266788
 20
-0.3431179090709122
 11
0.5417336418192633
 21
-0.540639791444022
  0
LINE
  5
362
100
AcDbEntity
  8
interior
  6
ByLayer
 62
  256
370
   -1
100
AcDbLine
 10
0.5417336418192633
 20
-0.540639791444022
 11
0.6822388983527645
 21
-0.7890693754597606
  0
LINE
  5
363
100
AcDbEntity
  8
interior
  6
ByLayer
 62
  256
370
   -1
100
AcDbLine
 10
0.6822388983527645
 20
-0.7890693754597606
 11
0.6822388983527645
 21
-1.15153221115483
  0
LINE
  5
364
100
AcDbEntity
  8
interior
  6
ByLayer
 62
  256
370
   -1
100
AcDbLine
 10
0.6272585805787827
 20
0.3594083735964944
 11
0.6272585805787827
 21
2.151359471414736
  0
LINE
  5
365
100
AcDbEntity
  8
interior
  6
ByLayer
 62
  256
370
   -1
100
AcDbLine
 10
0.6272585805787827
 20
2.151359471414736
 11
0.6150407321845393
 21
2.214485021451509
  0
LINE
  5
366
100
AcDbEntity
  8
interior
  6
ByLayer
 62
  256
370
   -1
100
AcDbLine
 10
0.6150407321845393
 20
2.214485021451509
 11
0.3442117594461251
 21
2.412006903824704
  0
LINE
  5
367
100
AcDbEntity
  8
interior
  6
ByLayer
 62
  256
370
   -1
100
AcDbLine
 10
0.3442117594461251
 20
2.412006903824704
 11
0.366611148168829
 21
2.446624140941623
  0
LINE
  5
368
100
AcDbEntity
  8
interior
  6
ByLayer
 62
  256
370
   -1
100
AcDbLine
 10
0.366611148168829
 20
2.446624140941623
 11
0.6557668934986225
 21
2.23688441017427
  0
LINE
  5
369
100
AcDbEntity
  8
interior
  6
ByLayer
 62
  256
370
   -1
100
AcDbLine
 10
0.6557668934986225
 20
2.23688441017427
 11
0.6598395096300038
 21
0.3594083735964944
  0
LINE
  5
36A
100
AcDbEntity
  8
interior
  6
ByLayer
 62
  256
370
   -1
100
AcDbLine
 10
0.631331196710164
 20
-0.3594083735964944
 11
0.631331196710164
 21
-6.521276580412476
  0
LINE
  5
36B
100
AcDbEntity
  8
interior
  6
ByLayer
 62
  256
370
   -1
100
AcDbLine
 10
0.631331196710164
 20
-6.521276580412476
 11
0.6598395096300038
 21
-6.521276580412476
  0
LINE
  5
36C
100
AcDbEntity
  8
interior
  6
ByLayer
 62
  256
370
   -1
100
AcDbLine
 10
0.6598395096300038
 20
-6.521276580412476
 11
0.6598395096300038
 21
-0.3594083735964944
  0
LINE
  5
36D
100
AcDbEntity
  8
interior
  6
ByLayer
 62
  256
370
   -1
100
AcDbLine
 10
0.6883478225498294
 20
-1.870348958347833
 11
0.6883478225498294
 21
-7.117914843663357
  0
LINE
  5
36E
100
AcDbEntity
  8
interior
  6
ByLayer
 62
  256
370
   -1
100
AcDbLine
 10
0.6883478225498294
 20
-7.117914843663357
 11
0.7206008398328692
 21
-7.117914843663357
  0
LINE
  5
36F
100
AcDbEntity
  8
interior
  6
ByLayer
 62
  256
370
   -1
100
AcDbLine
 10
0.7206008398328692
 20
-7.117914843663357
 11
0.7206008398328692
 21
-1.870348958347833
  0
LINE
  5
370
100
AcDbEntity
  8
interior
  6
ByLayer
 62
  256
370
   -1
100
AcDbLine
 10
0.9103054017114118
 20
-1.15153221115483
 11
0.9103054017114118
 21
-0.7911056835254442
  0
LINE
  5
371
100
AcDbEntity
  8
interior
  6
ByLayer
 62
  256
370
   -1
100
AcDbLine
 10
0.9103054017114118
 20
-0.7911056835254442
 11
0.869579240397357
 21
-0.7911056835254442
  0
LINE
  5
372
100
AcDbEntity
  8
interior
  6
ByLayer
 62
  256
370
   -1
100
AcDbLine
 10
0.869579240397357
 20
-0.7911056835254442
 11
0.869579240397357
 21
-0.3838440703849528
  0
LINE
  5
373
100
AcDbEntity
  8
interior
  6
ByLayer
 62
  256
370
   -1
100
AcDbLine
 10
0.869579240397357
 20
-0.3838440703849528
 11
1.098530375128959
 21
-0.3778279763082253
  0
LINE
  5
374
100
AcDbEntity
  8
interior
  6
ByLayer
 62
  256
370
   -1
100
AcDbLine
 10
1.098530375128959
 20
-0.3778279763082253
 11
1.095609435690378
 21
-0.7911056835254442
  0
LINE
  5
375
100
AcDbEntity
  8
interior
  6
ByLayer
 62
  256
370
   -1
100
AcDbLine
 10
1.095609435690378
 20
-0.7911056835254442
 11
1.054883274376337
 21
-0.7911056835254442
  0
LINE
  5
376
100
AcDbEntity
  8
interior
  6
ByLayer
 62
  256
370
   -1
100
AcDbLine
 10
0.9001238613829088
 20
-0.7911056835254442
 11
0.9001238613829088
 21
-0.7157622850944563
  0
LINE
  5
377
100
AcDbEntity
  8
interior
  6
ByLayer
 62
  256
370
   -1
100
AcDbLine
 10
0.9001238613829088
 20
-0.7157622850944563
 11
0.9103054017114118
 21
-0.7157622850944563
  0
LINE
  5
378
100
AcDbEntity
  8
interior
  6
ByLayer
 62
  256
370
   -1
100
AcDbLine
 10
0.9103054017114118
 20
-0.7157622850944563
 11
0.9103054017114118
 21
-0.6953992044374502
  0
LINE
  5
379
100
AcDbEntity
  8
interior
  6
ByLayer
 62
  256
370
   -1
100
AcDbLine
 10
0.9103054017114118
 20
-0.6953992044374502
 11
0.9001238613829088
 21
-0.6953992044374502
  0
LINE
  5
37A
100
AcDbEntity
  8
interior
  6
ByLayer
 62
  256
370
   -1
100
AcDbLine
 10
0.9001238613829088
 20
-0.6953992044374502
 11
0.9001238613829088
 21
-0.6200558060064623
  0
LINE
  5
37B
100
AcDbEntity
  8
interior
  6
ByLayer
 62
  256
370
   -1
100
AcDbLine
 10
0.9001238613829088
 20
-0.6200558060064623
 11
0.9103054017114118
 21
-0.6200558060064623
  0
LINE
  5
37C
100
AcDbEntity
  8
interior
  6
ByLayer
 62
  256
370
   -1
100
AcDbLine
 10
0.9103054017114118
 20
-0.6200558060064623
 11
0.9103054017114118
 21
-0.5996927253493993
  0
LINE
  5
37D
100
AcDbEntity
  8
interior
  6
ByLayer
 62
  256
370
   -1
100
AcDbLine
 10
0.9103054017114118
 20
-0.5996927253493993
 11
0.9001238613829088
 21
-0.5996927253493993
  0
LINE
  5
37E
100
AcDbEntity
  8
interior
  6
ByLayer
 62
  256
370
   -1
100
AcDbLine
 10
0.9001238613829088
 20
-0.5996927253493993
 11
0.9001238613829088
 21
-0.5243493269184114
  0
LINE
  5
37F
100
AcDbEntity
  8
interior
  6
ByLayer
 62
  256
370
   -1
100
AcDbLine
 10
0.9001238613829088
 20
-0.5243493269184114
 11
0.9103054017114118
 21
-0.5243493269184114
  0
LINE
  5
380
100
AcDbEntity
  8
interior
  6
ByLayer
 62
  256
370
   -1
100
AcDbLine
 10
0.9103054017114118
 20
-0.5243493269184114
 11
0.9103054017114118
 21
-0.3838440703849528
  0
LINE
  5
381
100
AcDbEntity
  8
interior
  6
ByLayer
 62
  256
370
   -1
100
AcDbLine
 10
1.054883274376337
 20
-0.7911056835254442
 11
1.054883274376337
 21
-1.870348958347833
  0
LINE
  5
382
100
AcDbEntity
  8
interior
  6
ByLayer
 62
  256
370
   -1
100
AcDbLine
 10
1.054883274376337
 20
-0.357372065530825
 11
1.054883274376337
 21
-0.5243493269184114
  0
LINE
  5
383
100
AcDbEntity
  8
interior
  6
ByLayer
 62
  256
370
   -1
100
AcDbLine
 10
1.054883274376337
 20
-0.5243493269184114
 11
1.06506481470484
 21
-0.5243493269184114
  0
LINE
  5
384
100
AcDbEntity
  8
interior
  6
ByLayer
 62
  256
370
   -1
100
AcDbLine
 10
1.06506481470484
 20
-0.5243493269184114
 11
1.06506481470484
 21
-0.5996927253493993
  0
LINE
  5
385
100
AcDbEntity
  8
interior
  6
ByLayer
 62
  256
370
   -1
100
AcDbLine
 10
1.06506481470484
 20
-0.5996927253493993
 11
1.054883274376337
 21
-0.5996927253493993
  0
LINE
  5
386
100
AcDbEntity
  8
interior
  6
ByLayer
 62
  256
370
   -1
100
AcDbLine
 10
1.054883274376337
 20
-0.5996927253493993
 11
1.054883274376337
 21
-0.6200558060064623
  0
LINE
  5
387
100
AcDbEntity
  8
interior
  6
ByLayer
 62
  256
370
   -1
100
AcDbLine
 10
1.054883274376337
 20
-0.6200558060064623
 11
1.06506481470484
 21
-0.6200558060064623
  0
LINE
  5
388
100
AcDbEntity
  8
interior
  6
ByLayer
 62
  256
370
   -1
100
AcDbLine
 10
1.06506481470484
 20
-0.6200558060064623
 11
1.06506481470484
 21
-0.6953992044374502
  0
LINE
  5
389
100
AcDbEntity
  8
interior
  6
ByLayer
 62
  256
370
   -1
100
AcDbLine
 10
1.06506481470484
 20
-0.6953992044374502
 11
1.054883274376337
 21
-0.6953992044374502
  0
LINE
  5
38A
100
AcDbEntity
  8
interior
  6
ByLayer
 62
  256
370
   -1
100
AcDbLine
 10
1.054883274376337
 20
-0.6953992044374502
 11
1.054883274376337
 21
-0.7157622850944563
  0
LINE
  5
38B
100
AcDbEntity
  8
interior
  6
ByLayer
 62
  256
370
   -1
100
AcDbLine
 10
1.054883274376337
 20
-0.7157622850944563
 11
1.06506481470484
 21
-0.7157622850944563
  0
LINE
  5
38C
100
AcDbEntity
  8
interior
  6
ByLayer
 62
  256
370
   -1
100
AcDbLine
 10
1.06506481470484
 20
-0.7157622850944563
 11
1.06506481470484
 21
-0.7911056835254442
  0
LINE
  5
38D
100
AcDbEntity
  8
interior
  6
ByLayer
 62
  256
370
   -1
100
AcDbLine
 10
0.9103054017114118
 20
-0.3827739188081409
 11
0.9103054017114118
 21
-0.216866808997338
  0
LINE
  5
38E
100
AcDbEntity
  8
interior
  6
ByLayer
 62
  256
370
   -1
100
AcDbLine
 10
1.126154056675915
 20
5.680281349277294
 11
1.054883274376337
 21
5.680281349277294
  0
LINE
  5
38F
100
AcDbEntity
  8
interior
  6
ByLayer
 62
  256
370
   -1
100
AcDbLine
 10
0.9078851309040772
 20
5.680281349277294
 11
0.9078851309040772
 21
13.0867678578681
  0
LINE
  5
390
100
AcDbEntity
  8
interior
  6
ByLayer
 62
  256
370
   -1
100
AcDbLine
 10
1.057303545183672
 20
13.0867678578681
 11
1.057303545183672
 21
5.680281349277294
  0
LINE
  5
391
100
AcDbEntity
  8
interior
  6
ByLayer
 62
  256
370
   -1
100
AcDbLine
 10
1.834529801231199
 20
13.37821710408778
 11
1.829526191975432
 21
13.40907269449843
  0
LINE
  5
392
100
AcDbEntity
  8
interior
  6
ByLayer
 62
  256
370
   -1
100
AcDbLine
 10
1.829526191975432
 20
13.40907269449843
 11
1.834529801231199
 21
13.43659254540523
  0
LINE
  5
393
100
AcDbEntity
  8
interior
  6
ByLayer
 62
  256
370
   -1
100
AcDbLine
 10
1.834529801231199
 20
13.43659254540523
 11
1.829526191975432
 21
13.46327846143606
  0
LINE
  5
394
100
AcDbEntity
  8
interior
  6
ByLayer
 62
  256
370
   -1
100
AcDbLine
 10
1.829526191975432
 20
13.46327846143606
 11
1.829526191975432
 21
13.51248061911789
  0
LINE
  5
395
100
AcDbEntity
  8
interior
  6
ByLayer
 62
  256
370
   -1
100
AcDbLine
 10
1.829526191975432
 20
13.51248061911789
 11
1.84120128023892
 21
13.61255280423353
  0
LINE
  5
396
100
AcDbEntity
  8
interior
  6
ByLayer
 62
  256
370
   -1
100
AcDbLine
 10
1.84120128023892
 20
13.61255280423353
 11
1.832027996603316
 21
13.62256002274509
  0
LINE
  5
397
100
AcDbEntity
  8
interior
  6
ByLayer
 62
  256
370
   -1
100
AcDbLine
 10
1.832027996603316
 20
13.62256002274509
 11
1.834529801231199
 21
13.68927481282213
  0
LINE
  5
398
100
AcDbEntity
  8
interior
  6
ByLayer
 62
  256
370
   -1
100
AcDbLine
 10
1.834529801231199
 20
13.68927481282213
 11
1.603529840589317
 21
13.68927481282213
  0
LINE
  5
399
100
AcDbEntity
  8
interior
  6
ByLayer
 62
  256
370
   -1
100
AcDbLine
 10
1.603529840589317
 20
13.68927481282213
 11
1.603529840589317
 21
13.63006543662874
  0
LINE
  5
39A
100
AcDbEntity
  8
interior
  6
ByLayer
 62
  256
370
   -1
100
AcDbLine
 10
1.603529840589317
 20
13.63006543662874
 11
1.465096651179408
 21
13.63006543662874
  0
LINE
  5
39B
100
AcDbEntity
  8
interior
  6
ByLayer
 62
  256
370
   -1
100
AcDbLine
 10
1.465096651179408
 20
13.63006543662874
 11
1.465096651179408
 21
13.47411961482359
  0
LINE
  5
39C
100
AcDbEntity
  8
interior
  6
ByLayer
 62
  256
370
   -1
100
AcDbLine
 10
1.465096651179408
 20
13.47411961482359
 11
1.220753732522127
 21
13.47411961482359
  0
LINE
  5
39D
100
AcDbEntity
  8
interior
  6
ByLayer
 62
  256
370
   -1
100
AcDbLine
 10
1.220753732522127
 20
13.47411961482359
 11
1.220753732522127
 21
13.32567920690209
  0
LINE
  5
39E
100
AcDbEntity
  8
interior
  6
ByLayer
 62
  256
370
   -1
100
AcDbLine
 10
1.220753732522127
 20
13.32567920690209
 11
1.057303545183672
 21
13.32567920690209
  0
LINE
  5
39F
100
AcDbEntity
  8
interior
  6
ByLayer
 62
  256
370
   -1
100
AcDbLine
 10
0.2206406464909634
 20
13.34362530940436
 11
0.2213740984486776
 21
13.41330324539075
  0
LINE
  5
3A0
100
AcDbEntity
  8
interior
  6
ByLayer
 62
  256
370
   -1
100
AcDbLine
 10
0.2213740984486776
 20
13.41330324539075
 11
0.2301755219417032
 21
13.4807808255039
  0
LINE
  5
3A1
100
AcDbEntity
  8
interior
  6
ByLayer
 62
  256
370
   -1
100
AcDbLine
 10
0.2301755219417032
 20
13.4807808255039
 11
0.2184402906176786
 21
13.54752495365926
  0
LINE
  5
3A2
100
AcDbEntity
  8
interior
  6
ByLayer
 62
  256
370
   -1
100
AcDbLine
 10
0.2184402906176786
 20
13.54752495365926
 11
0.2301755219417032
 21
13.60840146615263
  0
LINE
  5
3A3
100
AcDbEntity
  8
interior
  6
ByLayer
 62
  256
370
   -1
100
AcDbLine
 10
0.2301755219417032
 20
13.60840146615263
 11
0.2221075504064487
 21
13.67074488256151
  0
LINE
  5
3A4
100
AcDbEntity
  8
interior
  6
ByLayer
 62
  256
370
   -1
100
AcDbLine
 10
0.2221075504064487
 20
13.67074488256151
 11
0.2873847746463412
 21
13.67807940213902
  0
LINE
  5
3A5
100
AcDbEntity
  8
interior
  6
ByLayer
 62
  256
370
   -1
100
AcDbLine
 10
0.2873847746463412
 20
13.67807940213902
 11
0.3379929597311815
 21
13.67074488256151
  0
LINE
  5
3A6
100
AcDbEntity
  8
interior
  6
ByLayer
 62
  256
370
   -1
100
AcDbLine
 10
0.3379929597311815
 20
13.67074488256151
 11
0.4010698280977891
 21
13.67147833451926
  0
LINE
  5
3A7
100
AcDbEntity
  8
interior
  6
ByLayer
 62
  256
370
   -1
100
AcDbLine
 10
0.4010698280977891
 20
13.67147833451926
 11
0.4670805042954527
 21
13.657542747322
  0
LINE
  5
3A8
100
AcDbEntity
  8
interior
  6
ByLayer
 62
  256
370
   -1
100
AcDbLine
 10
0.4670805042954527
 20
13.657542747322
 11
0.4898175149857451
 21
13.63333883271616
  0
LINE
  5
3A9
100
AcDbEntity
  8
interior
  6
ByLayer
 62
  256
370
   -1
100
AcDbLine
 10
0.4898175149857451
 20
13.63333883271616
 11
0.517688689380293
 21
13.62673776509641
  0
LINE
  5
3AA
100
AcDbEntity
  8
interior
  6
ByLayer
 62
  256
370
   -1
100
AcDbLine
 10
0.517688689380293
 20
13.62673776509641
 11
0.5389587961551001
 21
13.59153207112436
  0
LINE
  5
3AB
100
AcDbEntity
  8
interior
  6
ByLayer
 62
  256
370
   -1
100
AcDbLine
 10
0.5389587961551001
 20
13.59153207112436
 11
0.5411591520283565
 21
13.54825840561702
  0
LINE
  5
3AC
100
AcDbEntity
  8
interior
  6
ByLayer
 62
  256
370
   -1
100
AcDbLine
 10
0.5411591520283565
 20
13.54825840561702
 11
0.5426260559438418
 21
13.47197940201085
  0
LINE
  5
3AD
100
AcDbEntity
  8
interior
  6
ByLayer
 62
  256
370
   -1
100
AcDbLine
 10
0.5426260559438418
 20
13.47197940201085
 11
0.7692627108890662
 21
13.47197940201085
  0
LINE
  5
3AE
100
AcDbEntity
  8
interior
  6
ByLayer
 62
  256
370
   -1
100
AcDbLine
 10
0.7692627108890662
 20
13.47197940201085
 11
0.8418744547064421
 21
13.32162175067182
  0
LINE
  5
3AF
100
AcDbEntity
  8
interior
  6
ByLayer
 62
  256
370
   -1
100
AcDbLine
 10
0.8418744547064421
 20
13.32162175067182
 11
0.9078851309040772
 21
13.32162175067182
  0
LINE
  5
3B0
100
AcDbEntity
  8
interior
  6
ByLayer
 62
  256
370
   -1
100
AcDbLine
 10
0.6653927593308424
 20
13.47315515233078
 11
0.6500743204920099
 21
13.48847359116968
  0
LINE
  5
3B1
100
AcDbEntity
  8
interior
  6
ByLayer
 62
  256
370
   -1
100
AcDbLine
 10
0.6500743204920099
 20
13.48847359116968
 11
0.6478049221454967
 21
13.51116757463467
  0
LINE
  5
3B2
100
AcDbEntity
  8
interior
  6
ByLayer
 62
  256
370
   -1
100
AcDbLine
 10
0.6478049221454967
 20
13.51116757463467
 11
0.6472375725588648
 21
13.53329420851304
  0
LINE
  5
3B3
100
AcDbEntity
  8
interior
  6
ByLayer
 62
  256
370
   -1
100
AcDbLine
 10
0.6472375725588648
 20
13.53329420851304
 11
0.6217068411607443
 21
13.53045746057992
  0
LINE
  5
3B4
100
AcDbEntity
  8
interior
  6
ByLayer
 62
  256
370
   -1
100
AcDbLine
 10
0.6217068411607443
 20
13.53045746057992
 11
0.6069557519085151
 21
13.53329420851304
  0
LINE
  5
3B5
100
AcDbEntity
  8
interior
  6
ByLayer
 62
  256
370
   -1
100
AcDbLine
 10
0.6069557519085151
 20
13.53329420851304
 11
0.600147556869004
 21
13.54180445231242
  0
LINE
  5
3B6
100
AcDbEntity
  8
interior
  6
ByLayer
 62
  256
370
   -1
100
AcDbLine
 10
0.600147556869004
 20
13.54180445231242
 11
0.5734821262976482
 21
13.54520854983215
  0
LINE
  5
3B7
100
AcDbEntity
  8
interior
  6
ByLayer
 62
  256
370
   -1
100
AcDbLine
 10
0.5734821262976482
 20
13.54520854983215
 11
0.553057541179129
 21
13.54464120024554
  0
LINE
  5
3B8
100
AcDbEntity
  8
interior
  6
ByLayer
 62
  256
370
   -1
100
AcDbLine
 10
0.553057541179129
 20
13.54464120024554
 11
0.5400085006867528
 21
13.55201674487168
  0
LINE
  5
3B9
100
AcDbEntity
  8
interior
  6
ByLayer
 62
  256
370
   -1
100
AcDbLine
 10
1.830963125637638
 20
13.68871735837058
 11
1.830963125637638
 21
13.71710072349023
  0
LINE
  5
3BA
100
AcDbEntity
  8
interior
  6
ByLayer
 62
  256
370
   -1
100
AcDbLine
 10
1.830963125637638
 20
13.71710072349023
 11
1.211689704844872
 21
13.71710072349023
  0
LINE
  5
3BB
100
AcDbEntity
  8
interior
  6
ByLayer
 62
  256
370
   -1
100
AcDbLine
 10
1.211689704844872
 20
13.71710072349023
 11
1.211689704844872
 21
13.70290904093042
  0
LINE
  5
3BC
100
AcDbEntity
  8
interior
  6
ByLayer
 62
  256
370
   -1
100
AcDbLine
 10
1.211689704844872
 20
13.70290904093042
 11
1.181371110285227
 21
13.70290904093042
  0
LINE
  5
3BD
100
AcDbEntity
  8
interior
  6
ByLayer
 62
  256
370
   -1
100
AcDbLine
 10
1.181371110285227
 20
13.70290904093042
 11
1.181371110285227
 21
13.51777209117256
  0
LINE
  5
3BE
100
AcDbEntity
  8
interior
  6
ByLayer
 62
  256
370
   -1
100
AcDbLine
 10
1.181371110285227
 20
13.51777209117256
 11
1.12645381431399
 21
13.51777209117256
  0
LINE
  5
3BF
100
AcDbEntity
  8
interior
  6
ByLayer
 62
  256
370
   -1
100
AcDbLine
 10
1.12645381431399
 20
13.51777209117256
 11
1.12645381431399
 21
13.34949292506639
  0
LINE
  5
3C0
100
AcDbEntity
  8
interior
  6
ByLayer
 62
  256
370
   -1
100
AcDbLine
 10
1.12645381431399
 20
13.34949292506639
 11
1.190997586596154
 21
13.34949292506639
  0
LINE
  5
3C1
100
AcDbEntity
  8
interior
  6
ByLayer
 62
  256
370
   -1
100
AcDbLine
 10
1.218868760990716
 20
13.3898327827427
 11
1.205666625751164
 21
13.36342851226365
  0
LINE
  5
3C2
100
AcDbEntity
  8
interior
  6
ByLayer
 62
  256
370
   -1
100
AcDbLine
 10
1.205666625751164
 20
13.36342851226365
 11
1.190264134638397
 21
13.3458256652776
  0
LINE
  5
3C3
100
AcDbEntity
  8
interior
  6
ByLayer
 62
  256
370
   -1
100
AcDbLine
 10
1.190264134638397
 20
13.3458256652776
 11
1.156525344581823
 21
13.33409043395361
  0
LINE
  5
3C4
100
AcDbEntity
  8
interior
  6
ByLayer
 62
  256
370
   -1
100
AcDbLine
 10
1.156525344581823
 20
13.33409043395361
 11
1.128654170187275
 21
13.32675591437606
  0
LINE
  5
3C5
100
AcDbEntity
  8
interior
  6
ByLayer
 62
  256
370
   -1
100
AcDbLine
 10
0.2886726338119416
 20
13.67796835310239
 11
0.2886726338119416
 21
13.71427872664637
  0
LINE
  5
3C6
100
AcDbEntity
  8
interior
  6
ByLayer
 62
  256
370
   -1
100
AcDbLine
 10
0.2886726338119416
 20
13.71427872664637
 11
0.6183027436409958
 21
13.71427872664637
  0
LINE
  5
3C7
100
AcDbEntity
  8
interior
  6
ByLayer
 62
  256
370
   -1
100
AcDbLine
 10
0.6183027436409958
 20
13.71427872664637
 11
0.6364579304130018
 21
13.70747053160687
  0
LINE
  5
3C8
100
AcDbEntity
  8
interior
  6
ByLayer
 62
  256
370
   -1
100
AcDbLine
 10
0.6364579304130018
 20
13.70747053160687
 11
0.649506970905378
 21
13.70747053160687
  0
LINE
  5
3C9
100
AcDbEntity
  8
interior
  6
ByLayer
 62
  256
370
   -1
100
AcDbLine
 10
0.649506970905378
 20
13.70747053160687
 11
0.6574498651181102
 21
13.69442149111453
  0
LINE
  5
3CA
100
AcDbEntity
  8
interior
  6
ByLayer
 62
  256
370
   -1
100
AcDbLine
 10
0.6574498651181102
 20
13.69442149111453
 11
0.677874450236601
 21
13.69498884070114
  0
LINE
  5
3CB
100
AcDbEntity
  8
interior
  6
ByLayer
 62
  256
370
   -1
100
AcDbLine
 10
0.677874450236601
 20
13.69498884070114
 11
0.6875193932092287
 21
13.68477654814188
  0
LINE
  5
3CC
100
AcDbEntity
  8
interior
  6
ByLayer
 62
  256
370
   -1
100
AcDbLine
 10
0.6875193932092287
 20
13.68477654814188
 11
0.7595877461143345
 21
13.68477654814188
  0
LINE
  5
3CD
100
AcDbEntity
  8
interior
  6
ByLayer
 62
  256
370
   -1
100
AcDbLine
 10
0.7595877461143345
 20
13.68477654814188
 11
0.7595877461143345
 21
13.57919540919497
  0
LINE
  5
3CE
100
AcDbEntity
  8
interior
  6
ByLayer
 62
  256
370
   -1
100
AcDbLine
 10
0.7595877461143345
 20
13.57919540919497
 11
0.757550211455623
 21
13.57919540919497
  0
LINE
  5
3CF
100
AcDbEntity
  8
interior
  6
ByLayer
 62
  256
370
   -1
100
AcDbLine
 10
1.057303545183672
 20
13.16749556253663
 11
0.9078851309040772
 21
13.16749556253663
  0
LINE
  5
3D0
100
AcDbEntity
  8
interior
  6
ByLayer
 62
  256
370
   -1
100
AcDbLine
 10
1.12645381431399
 20
13.34949292506639
 11
0.8284147168281066
 21
13.34949292506639
  0
LINE
  5
3D1
100
AcDbEntity
  8
interior
  6
ByLayer
 62
  256
370
   -1
100
AcDbLine
 10
1.12645381431399
 20
13.51777209117256
 11
0.7692627108890662
 21
13.51777209117256
  0
LINE
  5
3D2
100
AcDbEntity
  8
interior
  6
ByLayer
 62
  256
370
   -1
100
AcDbLine
 10
0.7692627108890662
 20
13.51777209117256
 11
0.7692627108890662
 21
13.47197940201085
  0
LINE
  5
3D3
100
AcDbEntity
  8
interior
  6
ByLayer
 62
  256
370
   -1
100
AcDbLine
 10
0.7544986925615831
 20
13.51793897509984
 11
0.7692627108890662
 21
13.51777209117256
  0
LINE
  5
3D4
100
AcDbEntity
  8
interior
  6
ByLayer
 62
  256
370
   -1
100
AcDbLine
 10
0.757550211455623
 20
13.57919540919497
 11
0.7544986925615831
 21
13.51793897509984
  0
LINE
  5
3D5
100
AcDbEntity
  8
interior
  6
ByLayer
 62
  256
370
   -1
100
AcDbLine
 10
0.7595877461143345
 20
13.68477654814188
 11
1.181371110285227
 21
13.68477654814188
  0
LINE
  5
3D6
100
AcDbEntity
  8
interior
  6
ByLayer
 62
  256
370
   -1
100
AcDbLine
 10
0.9078851309040772
 20
13.32162175067182
 11
0.9078851309040772
 21
13.0867678578681
  0
LINE
  5
3D7
100
AcDbEntity
  8
interior
  6
ByLayer
 62
  256
370
   -1
100
AcDbLine
 10
1.057303545183672
 20
13.32567920690209
 11
1.057303545183672
 21
13.0867678578681
  0
LINE
  5
3D8
100
AcDbEntity
  8
interior
  6
ByLayer
 62
  256
370
   -1
100
AcDbLine
 10
1.057303545183672
 20
13.0867678578681
 11
0.9078851309040772
 21
13.0867678578681
  0
LINE
  5
3D9
100
AcDbEntity
  8
interior
  6
ByLayer
 62
  256
370
   -1
100
AcDbLine
 10
0.8359321398996258
 20
12.49402231281232
 11
1.12925653618808
 21
12.49402231281232
  0
LINE
  5
3DA
100
AcDbEntity
  8
interior
  6
ByLayer
 62
  256
370
   -1
100
AcDbLine
 10
0.065682726222974
 20
15.50448632359985
 11
0.065682726222974
 21
15.80989650351157
  0
LINE
  5
3DB
100
AcDbEntity
  8
interior
  6
ByLayer
 62
  256
370
   -1
100
AcDbLine
 10
0.065682726222974
 20
15.50448632359985
 11
-0.7031412847235003
 21
15.50448632359985
  0
LINE
  5
3DC
100
AcDbEntity
  8
interior
  6
ByLayer
 62
  256
370
   -1
100
AcDbLine
 10
-0.7031412847235003
 20
15.50448632359985
 11
-0.7031412847235003
 21
15.80989650351157
  0
LINE
  5
3DD
100
AcDbEntity
  8
interior
  6
ByLayer
 62
  256
370
   -1
100
AcDbLine
 10
-0.2636498213095848
 20
15.50448632359985
 11
-0.2636498213095848
 21
15.80989650351157
  0
LINE
  5
3DE
100
AcDbEntity
  8
exterior
  6
CONTINUOUS
 62
  256
370
    0
100
AcDbLine
 10
-73.44232095651759
 20
-96.06360471649234
 11
-73.44232095651759
 21
-106.9364766740963
  0
LINE
  5
3DF
100
AcDbEntity
  8
exterior
  6
CONTINUOUS
 62
  256
370
    0
100
AcDbLine
 10
-73.44232095651759
 20
-106.9364766740963
 11
-84.31519291415421
 21
-106.9364766740963
  0
LINE
  5
3E0
100
AcDbEntity
  8
exterior
  6
CONTINUOUS
 62
  256
370
    0
100
AcDbLine
 10
-84.31519291415421
 20
-106.9364766740963
 11
-84.31519291415421
 21
-96.06360471649234
  0
LINE
  5
3E1
100
AcDbEntity
  8
exterior
  6
CONTINUOUS
 62
  256
370
    0
100
AcDbLine
 10
-84.31519291415421
 20
-96.06360471649234
 11
-73.44232095651759
 21
-96.06360471649234
  0
LINE
  5
3E2
100
AcDbEntity
  8
exterior
  6
CONTINUOUS
 62
  256
370
    0
100
AcDbLine
 10
-78.87875693533587
 20
-101.500040695327
 11
-73.44232095651759
 21
-106.9364766740963
  0
LINE
  5
3E3
100
AcDbEntity
  8
exterior
  6
CONTINUOUS
 62
  256
370
    0
100
AcDbLine
 10
-84.31519291415617
 20
-106.9364766740963
 11
-78.87875693533587
 21
-101.500040695327
  0
LINE
  5
3E4
100
AcDbEntity
  8
exterior
  6
CONTINUOUS
 62
  256
370
    0
100
AcDbLine
 10
-73.44232095651759
 20
-96.06360471649234
 11
-78.87875693533587
 21
-101.500040695327
  0
LINE
  5
3E5
100
AcDbEntity
  8
exterior
  6
CONTINUOUS
 62
  256
370
    0
100
AcDbLine
 10
-78.87875693533587
 20
-101.500040695327
 11
-84.31519291415617
 21
-96.06360471649234
  0
LINE
  5
3E6
100
AcDbEntity
  8
exterior
  6
CONTINUOUS
 62
  256
370
    0
100
AcDbLine
 10
-15.80989650349731
 20
15.80989650351157
 11
15.80989650349939
 21
15.80989650351157
  0
LINE
  5
3E7
100
AcDbEntity
  8
exterior
  6
CONTINUOUS
 62
  256
370
    0
100
AcDbLine
 10
15.80989650349939
 20
15.80989650351157
 11
15.80989650349939
 21
-15.80989650351165
  0
LINE
  5
3E8
100
AcDbEntity
  8
exterior
  6
CONTINUOUS
 62
  256
370
    0
100
AcDbLine
 10
15.80989650349939
 20
-15.80989650351165
 11
-15.80989650349731
 21
-15.80989650351165
  0
LINE
  5
3E9
100
AcDbEntity
  8
exterior
  6
CONTINUOUS
 62
  256
370
    0
100
AcDbLine
 10
-15.80989650349731
 20
-15.80989650351165
 11
-15.80989650349731
 21
15.80989650351157
  0
LINE
  5
3EA
100
AcDbEntity
  8
exterior
  6
CONTINUOUS
 62
  256
370
    0
100
AcDbLine
 10
-88.61128051680006
 20
-112.4058019916025
 11
-91.21806705305434
 21
-115.0125885278956
  0
LINE
  5
3EB
100
AcDbEntity
  8
exterior
  6
CONTINUOUS
 62
  256
370
    0
100
AcDbLine
 10
-91.21806705305434
 20
-115.0125885278956
 11
-88.61128051680006
 21
-117.6193750641233
  0
LINE
  5
3EC
100
AcDbEntity
  8
exterior
  6
CONTINUOUS
 62
  256
370
    0
100
AcDbLine
 10
-88.61128051680006
 20
-112.4058019916025
 11
-88.61128051680006
 21
-117.6193750641233
  0
LINE
  5
3ED
100
AcDbEntity
  8
exterior
  6
CONTINUOUS
 62
  256
370
    0
100
AcDbLine
 10
-93.82485358930863
 20
-117.6193750641233
 11
-91.21806705305434
 21
-115.0125885278956
  0
LINE
  5
3EE
100
AcDbEntity
  8
exterior
  6
CONTINUOUS
 62
  256
370
    0
100
AcDbLine
 10
-88.61128051680006
 20
-117.6193750641233
 11
-93.82485358930863
 21
-117.6193750641233
  0
LINE
  5
3EF
100
AcDbEntity
  8
exterior
  6
CONTINUOUS
 62
  256
370
    0
100
AcDbLine
 10
-93.82485358930863
 20
-112.4058019916025
 11
-88.61128051680006
 21
-112.4058019916025
  0
LINE
  5
3F0
100
AcDbEntity
  8
exterior
  6
CONTINUOUS
 62
  256
370
    0
100
AcDbLine
 10
-91.21806705305434
 20
-115.0125885278956
 11
-93.82485358930863
 21
-112.4058019916025
  0
LINE
  5
3F1
100
AcDbEntity
  8
exterior
  6
CONTINUOUS
 62
  256
370
    0
100
AcDbLine
 10
-93.82485358930863
 20
-117.6193750641233
 11
-93.82485358930863
 21
-112.4058019916025
  0
LINE
  5
3F2
100
AcDbEntity
  8
exterior
  6
CONTINUOUS
 62
  256
370
    0
100
AcDbLine
 10
-86.1198306471542
 20
-94.25896698351067
 11
-71.63768322351756
 21
-94.25896698351067
  0
LINE
  5
3F3
100
AcDbEntity
  8
exterior
  6
CONTINUOUS
 62
  256
370
    0
100
AcDbLine
 10
-86.1198306471542
 20
-108.7411144071433
 11
-86.1198306471542
 21
-94.25896698351067
  0
LINE
  5
3F4
100
AcDbEntity
  8
exterior
  6
CONTINUOUS
 62
  256
370
    0
100
AcDbLine
 10
-71.63768322351756
 20
-108.7411144071433
 11
-86.1198306471542
 21
-108.7411144071433
  0
LINE
  5
3F5
100
AcDbEntity
  8
exterior
  6
CONTINUOUS
 62
  256
370
    0
100
AcDbLine
 10
-71.63768322351756
 20
-94.25896698351067
 11
-71.63768322351756
 21
-108.7411144071433
  0
LINE
  5
3F6
100
AcDbEntity
  8
exterior
  6
CONTINUOUS
 62
  256
370
    0
100
AcDbLine
 10
-60.67161620622969
 20
-33.79927398943376
 11
-31.12261023536492
 21
-33.79927398943376
  0
LINE
  5
3F7
100
AcDbEntity
  8
exterior
  6
CONTINUOUS
 62
  256
370
    0
100
AcDbLine
 10
-60.67161620622969
 20
-63.34827996026584
 11
-60.67161620622969
 21
-33.79927398943376
  0
LINE
  5
3F8
100
AcDbEntity
  8
exterior
  6
CONTINUOUS
 62
  256
370
    0
100
AcDbLine
 10
-31.12261023536492
 20
-63.34827996026584
 11
-60.67161620622969
 21
-63.34827996026584
  0
LINE
  5
3F9
100
AcDbEntity
  8
exterior
  6
CONTINUOUS
 62
  256
370
    0
100
AcDbLine
 10
-31.12261023536492
 20
-33.79927398943376
 11
-31.12261023536492
 21
-63.34827996026584
  0
LINE
  5
3FA
100
AcDbEntity
  8
exterior
  6
CONTINUOUS
 62
  256
370
    0
100
AcDbLine
 10
-82.6096717119989
 20
-112.4452295896538
 11
-85.21645824825521
 21
-115.0520161258816
  0
LINE
  5
3FB
100
AcDbEntity
  8
exterior
  6
CONTINUOUS
 62
  256
370
    0
100
AcDbLine
 10
-85.21645824825521
 20
-115.0520161258816
 11
-82.6096717119989
 21
-117.6588026621093
  0
LINE
  5
3FC
100
AcDbEntity
  8
exterior
  6
CONTINUOUS
 62
  256
370
    0
100
AcDbLine
 10
-82.60967171200096
 20
-112.4452295896538
 11
-82.60967171200096
 21
-117.6588026621093
  0
LINE
  5
3FD
100
AcDbEntity
  8
exterior
  6
CONTINUOUS
 62
  256
370
    0
100
AcDbLine
 10
-87.82324478450948
 20
-117.6588026621093
 11
-85.21645824825521
 21
-115.0520161258816
  0
LINE
  5
3FE
100
AcDbEntity
  8
exterior
  6
CONTINUOUS
 62
  256
370
    0
100
AcDbLine
 10
-82.60967171200096
 20
-117.6588026621093
 11
-87.82324478450948
 21
-117.6588026621093
  0
LINE
  5
3FF
100
AcDbEntity
  8
exterior
  6
CONTINUOUS
 62
  256
370
    0
100
AcDbLine
 10
-87.82324478450948
 20
-112.4452295896538
 11
-82.60967171200096
 21
-112.4452295896538
  0
LINE
  5
400
100
AcDbEntity
  8
exterior
  6
CONTINUOUS
 62
  256
370
    0
100
AcDbLine
 10
-85.21645824825521
 20
-115.0520161258816
 11
-87.82324478450948
 21
-112.4452295896538
  0
LINE
  5
401
100
AcDbEntity
  8
exterior
  6
CONTINUOUS
 62
  256
370
    0
100
AcDbLine
 10
-87.82324478450948
 20
-117.6588026621093
 11
-87.82324478450948
 21
-112.4452295896538
  0
LINE
  5
402
100
AcDbEntity
  8
exterior
  6
CONTINUOUS
 62
  256
370
    0
100
AcDbLine
 10
-75.62185410683952
 20
-112.4452295896538
 11
-78.22864064309381
 21
-115.0520161258816
  0
LINE
  5
403
100
AcDbEntity
  8
exterior
  6
CONTINUOUS
 62
  256
370
    0
100
AcDbLine
 10
-78.22864064309381
 20
-115.0520161258816
 11
-75.62185410683952
 21
-117.6588026621093
  0
LINE
  5
404
100
AcDbEntity
  8
exterior
  6
CONTINUOUS
 62
  256
370
    0
100
AcDbLine
 10
-75.62185410683952
 20
-112.4452295896538
 11
-75.62185410683952
 21
-117.6588026621093
  0
LINE
  5
405
100
AcDbEntity
  8
exterior
  6
CONTINUOUS
 62
  256
370
    0
100
AcDbLine
 10
-80.8354271793481
 20
-117.6588026621093
 11
-78.22864064309381
 21
-115.0520161258816
  0
LINE
  5
406
100
AcDbEntity
  8
exterior
  6
CONTINUOUS
 62
  256
370
    0
100
AcDbLine
 10
-75.62185410683952
 20
-117.6588026621093
 11
-80.8354271793481
 21
-117.6588026621093
  0
LINE
  5
407
100
AcDbEntity
  8
exterior
  6
CONTINUOUS
 62
  256
370
    0
100
AcDbLine
 10
-80.8354271793481
 20
-112.4452295896538
 11
-75.62185410683952
 21
-112.4452295896538
  0
LINE
  5
408
100
AcDbEntity
  8
exterior
  6
CONTINUOUS
 62
  256
370
    0
100
AcDbLine
 10
-78.22864064309381
 20
-115.0520161258816
 11
-80.8354271793481
 21
-112.4452295896538
  0
LINE
  5
409
100
AcDbEntity
  8
exterior
  6
CONTINUOUS
 62
  256
370
    0
100
AcDbLine
 10
-80.8354271793481
 20
-117.6588026621093
 11
-80.8354271793481
 21
-112.4452295896538
  0
LINE
  5
40A
100
AcDbEntity
  8
exterior
  6
CONTINUOUS
 62
  256
370
    0
100
AcDbLine
 10
-73.44232095651759
 20
-106.9364766740963
 11
-73.44232095651759
 21
-96.06360471649234
  0
LINE
  5
40B
100
AcDbEntity
  8
exterior
  6
CONTINUOUS
 62
  256
370
    0
100
AcDbLine
 10
-73.44232095651759
 20
-96.06360471649234
 11
-84.31519291415421
 21
-96.06360471649234
  0
LINE
  5
40C
100
AcDbEntity
  8
exterior
  6
CONTINUOUS
 62
  256
370
    0
100
AcDbLine
 10
-84.31519291415421
 20
-96.06360471649234
 11
-84.31519291415421
 21
-106.9364766740963
  0
LINE
  5
40D
100
AcDbEntity
  8
exterior
  6
CONTINUOUS
 62
  256
370
    0
100
AcDbLine
 10
-84.31519291415421
 20
-106.9364766740963
 11
-73.44232095651759
 21
-106.9364766740963
  0
LINE
  5
40E
100
AcDbEntity
  8
exterior
  6
CONTINUOUS
 62
  256
370
    0
100
AcDbLine
 10
-71.63768322351756
 20
-94.25896698351067
 11
-73.44232095651759
 21
-96.06360471649234
  0
LINE
  5
40F
100
AcDbEntity
  8
exterior
  6
CONTINUOUS
 62
  256
370
    0
100
AcDbLine
 10
-86.1198306471542
 20
-94.25896698351067
 11
-71.63768322351756
 21
-94.25896698351067
  0
LINE
  5
410
100
AcDbEntity
  8
exterior
  6
CONTINUOUS
 62
  256
370
    0
100
AcDbLine
 10
-84.31519291415617
 20
-96.06360471649234
 11
-86.1198306471542
 21
-94.25896698351067
  0
LINE
  5
411
100
AcDbEntity
  8
exterior
  6
CONTINUOUS
 62
  256
370
    0
100
AcDbLine
 10
-73.44232095651759
 20
-106.9364766740963
 11
-71.63768322351756
 21
-108.7411144071433
  0
LINE
  5
412
100
AcDbEntity
  8
exterior
  6
CONTINUOUS
 62
  256
370
    0
100
AcDbLine
 10
-71.63768322351756
 20
-94.25896698351067
 11
-71.63768322351756
 21
-108.7411144071433
  0
LINE
  5
413
100
AcDbEntity
  8
exterior
  6
CONTINUOUS
 62
  256
370
    0
100
AcDbLine
 10
-86.1198306471542
 20
-108.7411144071433
 11
-84.31519291415617
 21
-106.9364766740963
  0
LINE
  5
414
100
AcDbEntity
  8
exterior
  6
CONTINUOUS
 62
  256
370
    0
100
AcDbLine
 10
-71.63768322351756
 20
-108.7411144071433
 11
-86.1198306471542
 21
-108.7411144071433
  0
LINE
  5
415
100
AcDbEntity
  8
exterior
  6
CONTINUOUS
 62
  256
370
    0
100
AcDbLine
 10
-86.1198306471542
 20
-108.7411144071433
 11
-86.1198306471542
 21
-94.25896698351067
  0
LINE
  5
416
100
AcDbEntity
  8
exterior
  6
CONTINUOUS
 62
  256
370
    0
100
AcDbLine
 10
-47.47810287114521
 20
-66.55731850604785
 11
-45.89711322079526
 21
-68.13830815641208
  0
LINE
  5
417
100
AcDbEntity
  8
exterior
  6
CONTINUOUS
 62
  256
370
    0
100
AcDbLine
 10
-45.89711322079526
 20
-68.13830815641208
 11
-44.31612357044535
 21
-66.55731850604785
  0
LINE
  5
418
100
AcDbEntity
  8
exterior
  6
CONTINUOUS
 62
  256
370
    0
100
AcDbLine
 10
-47.47810287114521
 20
-66.55731850604785
 11
-44.31612357044535
 21
-66.55731850604785
  0
LINE
  5
419
100
AcDbEntity
  8
exterior
  6
CONTINUOUS
 62
  256
370
    0
100
AcDbLine
 10
-44.31612357044535
 20
-69.71929780671096
 11
-45.89711322079526
 21
-68.13830815641208
  0
LINE
  5
41A
100
AcDbEntity
  8
exterior
  6
CONTINUOUS
 62
  256
370
    0
100
AcDbLine
 10
-44.31612357044535
 20
-66.55731850604785
 11
-44.31612357044535
 21
-69.71929780671096
  0
LINE
  5
41B
100
AcDbEntity
  8
exterior
  6
CONTINUOUS
 62
  256
370
    0
100
AcDbLine
 10
-47.47810287114521
 20
-69.71929780671096
 11
-47.47810287114521
 21
-66.55731850604785
  0
LINE
  5
41C
100
AcDbEntity
  8
exterior
  6
CONTINUOUS
 62
  256
370
    0
100
AcDbLine
 10
-45.89711322079526
 20
-68.13830815641208
 11
-47.47810287114521
 21
-69.71929780671096
  0
LINE
  5
41D
100
AcDbEntity
  8
exterior
  6
CONTINUOUS
 62
  256
370
    0
100
AcDbLine
 10
-44.31612357044535
 20
-69.71929780671096
 11
-47.47810287114521
 21
-69.71929780671096
  0
LINE
  5
41E
100
AcDbEntity
  8
exterior
  6
CONTINUOUS
 62
  256
370
    0
100
AcDbLine
 10
-31.12261023536492
 20
-33.79927398943376
 11
-45.89711322079729
 21
-48.57377697484979
  0
LINE
  5
41F
100
AcDbEntity
  8
exterior
  6
CONTINUOUS
 62
  256
370
    0
100
AcDbLine
 10
-45.89711322079729
 20
-48.57377697484979
 11
-31.12261023536492
 21
-63.34827996026584
  0
LINE
  5
420
100
AcDbEntity
  8
exterior
  6
CONTINUOUS
 62
  256
370
    0
100
AcDbLine
 10
-60.67161620622766
 20
-63.34827996026584
 11
-45.89711322079526
 21
-48.57377697484979
  0
LINE
  5
421
100
AcDbEntity
  8
exterior
  6
CONTINUOUS
 62
  256
370
    0
100
AcDbLine
 10
-45.89711322079526
 20
-48.57377697484979
 11
-60.67161620622766
 21
-33.79927398943376
  0
LINE
  5
422
100
AcDbEntity
  8
exterior
  6
CONTINUOUS
 62
  256
370
    0
100
AcDbLine
 10
-15.80989650349731
 20
15.80989650351157
 11
1.4210854715202e-14
 21
-2.842170943040401e-14
  0
LINE
  5
423
100
AcDbEntity
  8
exterior
  6
CONTINUOUS
 62
  256
370
    0
100
AcDbLine
 10
1.4210854715202e-14
 20
-2.842170943040401e-14
 11
15.80989650349939
 21
15.80989650351157
  0
LINE
  5
424
100
AcDbEntity
  8
exterior
  6
CONTINUOUS
 62
  256
370
    0
100
AcDbLine
 10
-15.80989650349731
 20
15.80989650351157
 11
15.80989650349939
 21
15.80989650351157
  0
LINE
  5
425
100
AcDbEntity
  8
exterior
  6
CONTINUOUS
 62
  256
370
    0
100
AcDbLine
 10
15.80989650349939
 20
-15.80989650351165
 11
1.4210854715202e-14
 21
-2.842170943040401e-14
  0
LINE
  5
426
100
AcDbEntity
  8
exterior
  6
CONTINUOUS
 62
  256
370
    0
100
AcDbLine
 10
15.80989650349939
 20
15.80989650351157
 11
15.80989650349939
 21
-15.80989650351165
  0
LINE
  5
427
100
AcDbEntity
  8
exterior
  6
CONTINUOUS
 62
  256
370
    0
100
AcDbLine
 10
-15.80989650349731
 20
-15.80989650351165
 11
-15.80989650349731
 21
15.80989650351157
  0
LINE
  5
428
100
AcDbEntity
  8
exterior
  6
CONTINUOUS
 62
  256
370
    0
100
AcDbLine
 10
1.4210854715202e-14
 20
-2.842170943040401e-14
 11
-15.80989650349731
 21
-15.80989650351165
  0
LINE
  5
429
100
AcDbEntity
  8
exterior
  6
CONTINUOUS
 62
  256
370
    0
100
AcDbLine
 10
15.80989650349939
 20
-15.80989650351165
 11
-15.80989650349731
 21
-15.80989650351165
  0
LINE
  5
42A
100
AcDbEntity
  8
exterior
  6
ByLayer
 62
  256
370
   -1
100
AcDbLine
 10
19.20487385826812
 20
-15.73727578452922
 11
22.27127938215732
 21
-15.73727578452922
  0
LINE
  5
42B
100
AcDbEntity
  8
exterior
  6
ByLayer
 62
  256
370
   -1
100
AcDbLine
 10
22.27127938215732
 20
-15.73727578452922
 11
22.27127938215732
 21
-18.81189415672516
  0
LINE
  5
42C
100
AcDbEntity
  8
exterior
  6
ByLayer
 62
  256
370
   -1
100
AcDbLine
 10
22.27127938215732
 20
-18.81189415672516
 11
19.20487385826812
 21
-18.81189415672516
  0
LINE
  5
42D
100
AcDbEntity
  8
exterior
  6
ByLayer
 62
  256
370
   -1
100
AcDbLine
 10
19.20487385826812
 20
-18.81189415672516
 11
19.20487385826812
 21
-15.73727578452922
  0
LINE
  5
42E
100
AcDbEntity
  8
exterior
  6
ByLayer
 62
  256
370
   -1
100
AcDbLine
 10
20.15874064861411
 20
-16.95897076573679
 11
20.15874064861411
 21
-17.29328824739873
  0
LINE
  5
42F
100
AcDbEntity
  8
exterior
  6
ByLayer
 62
  256
370
   -1
100
AcDbLine
 10
20.15874064861411
 20
-17.29328824739873
 11
21.27614412335818
 21
-17.29328824739873
  0
LINE
  5
430
100
AcDbEntity
  8
exterior
  6
ByLayer
 62
  256
370
   -1
100
AcDbLine
 10
21.27614412335818
 20
-17.29328824739873
 11
21.27614412335818
 21
-16.95897076573679
  0
LINE
  5
431
100
AcDbEntity
  8
exterior
  6
ByLayer
 62
  256
370
   -1
100
AcDbLine
 10
20.63134880927343
 20
-16.29351341855319
 11
20.63134880927343
 21
-16.95897076573679
  0
LINE
  5
432
100
AcDbEntity
  8
exterior
  6
ByLayer
 62
  256
370
   -1
100
AcDbLine
 10
20.78408311568508
 20
-16.29129987788059
 11
20.78408311568508
 21
-16.95897076573679
  0
LINE
  5
433
100
AcDbEntity
  8
exterior
  6
ByLayer
 62
  256
370
   -1
100
AcDbLine
 10
20.63134880927343
 20
-16.95897076573679
 11
20.15874064861411
 21
-16.95897076573679
  0
LINE
  5
434
100
AcDbEntity
  8
exterior
  6
ByLayer
 62
  256
370
   -1
100
AcDbLine
 10
20.78408311568508
 20
-16.95897076573679
 11
21.27614412335818
 21
-16.95897076573679
  0
LINE
  5
435
100
AcDbEntity
  8
exterior
  6
ByLayer
 62
  256
370
   -1
100
AcDbLine
 10
27.62686269725344
 20
5.033200608516893
 11
27.62686269725344
 21
4.508613583874961
  0
LINE
  5
436
100
AcDbEntity
  8
exterior
  6
ByLayer
 62
  256
370
   -1
100
AcDbLine
 10
27.62686269725344
 20
4.508613583874961
 11
27.69591980382521
 21
4.508613583874961
  0
LINE
  5
437
100
AcDbEntity
  8
exterior
  6
ByLayer
 62
  256
370
   -1
100
AcDbLine
 10
27.69591980382521
 20
4.508613583874961
 11
27.69591980382521
 21
4.314561276513416
  0
LINE
  5
438
100
AcDbEntity
  8
exterior
  6
ByLayer
 62
  256
370
   -1
100
AcDbLine
 10
27.69591980382521
 20
4.314561276513416
 11
27.84006779446688
 21
4.314561276513416
  0
LINE
  5
439
100
AcDbEntity
  8
exterior
  6
ByLayer
 62
  256
370
   -1
100
AcDbLine
 10
27.84006779446688
 20
4.314561276513416
 11
27.84006779446688
 21
4.508613583874961
  0
LINE
  5
43A
100
AcDbEntity
  8
exterior
  6
ByLayer
 62
  256
370
   -1
100
AcDbLine
 10
27.84006779446688
 20
4.508613583874961
 11
27.90528839510415
 21
4.508613583874961
  0
LINE
  5
43B
100
AcDbEntity
  8
exterior
  6
ByLayer
 62
  256
370
   -1
100
AcDbLine
 10
27.90528839510415
 20
4.508613583874961
 11
27.90528839510415
 21
5.033200608516893
  0
LINE
  5
43C
100
AcDbEntity
  8
exterior
  6
ByLayer
 62
  256
370
   -1
100
AcDbLine
 10
27.90528839510415
 20
5.033200608516893
 11
27.62686269725344
 21
5.033200608516893
  0
LINE
  5
43D
100
AcDbEntity
  8
exterior
  6
ByLayer
 62
  256
370
   -1
100
AcDbLine
 10
27.69591980382521
 20
4.757326831259149
 11
27.84006779446688
 21
4.757326831259149
  0
LINE
  5
43E
100
AcDbEntity
  8
exterior
  6
ByLayer
 62
  256
370
   -1
100
AcDbLine
 10
27.69591980382521
 20
4.740668196527793
 11
27.84006779446688
 21
4.740668196527793
  0
LINE
  5
43F
100
AcDbEntity
  8
exterior
  6
ByLayer
 62
  256
370
   -1
100
AcDbLine
 10
27.69591980382521
 20
4.508613583874961
 11
27.69591980382521
 21
5.033200608516893
  0
LINE
  5
440
100
AcDbEntity
  8
exterior
  6
ByLayer
 62
  256
370
   -1
100
AcDbLine
 10
27.84006779446688
 20
4.508613583874961
 11
27.84006779446688
 21
5.033200608516893
  0
LINE
  5
441
100
AcDbEntity
  8
exterior
  6
ByLayer
 62
  256
370
   -1
100
AcDbLine
 10
27.69591980382521
 20
5.02466837936089
 11
27.84006779446688
 21
5.02466837936089
  0
LINE
  5
442
100
AcDbEntity
  8
exterior
  6
ByLayer
 62
  256
370
   -1
100
AcDbLine
 10
27.69591980382521
 20
4.995185051822489
 11
27.84006779446688
 21
4.995185051822489
  0
LINE
  5
443
100
AcDbEntity
  8
exterior
  6
ByLayer
 62
  256
370
   -1
100
AcDbLine
 10
27.81716442880139
 20
5.846509595431485
 11
27.71882316936583
 21
5.846509595431485
  0
LINE
  5
444
100
AcDbEntity
  8
exterior
  6
ByLayer
 62
  256
370
   -1
100
AcDbLine
 10
27.71882316936583
 20
5.846509595431485
 11
27.71882316936583
 21
5.944850854867099
  0
LINE
  5
445
100
AcDbEntity
  8
exterior
  6
ByLayer
 62
  256
370
   -1
100
AcDbLine
 10
27.71882316936583
 20
5.944850854867099
 11
27.81716442880139
 21
5.944850854867099
  0
LINE
  5
446
100
AcDbEntity
  8
exterior
  6
ByLayer
 62
  256
370
   -1
100
AcDbLine
 10
27.81716442880139
 20
5.944850854867099
 11
27.81716442880139
 21
5.846509595431485
  0
LINE
  5
447
100
AcDbEntity
  8
exterior
  6
ByLayer
 62
  256
370
   -1
100
AcDbLine
 10
27.69591980382521
 20
6.586569069839271
 11
27.69591980382521
 21
7.331198342610037
  0
LINE
  5
448
100
AcDbEntity
  8
exterior
  6
ByLayer
 62
  256
370
   -1
100
AcDbLine
 10
27.69591980382521
 20
7.331198342610037
 11
27.84006779446688
 21
7.331198342610037
  0
LINE
  5
449
100
AcDbEntity
  8
exterior
  6
ByLayer
 62
  256
370
   -1
100
AcDbLine
 10
27.84006779446688
 20
7.331198342610037
 11
27.84006779446688
 21
6.586569069839271
  0
LINE
  5
44A
100
AcDbEntity
  8
exterior
  6
ByLayer
 62
  256
370
   -1
100
AcDbLine
 10
27.84006779446688
 20
6.586569069839271
 11
27.69591980382521
 21
6.586569069839271
  0
LINE
  5
44B
100
AcDbEntity
  8
exterior
  6
ByLayer
 62
  256
370
   -1
100
AcDbLine
 10
27.69591980382521
 20
7.331198342610037
 11
27.69591980382521
 21
7.45875878433236
  0
LINE
  5
44C
100
AcDbEntity
  8
exterior
  6
ByLayer
 62
  256
370
   -1
100
AcDbLine
 10
27.69591980382521
 20
7.45875878433236
 11
27.84006779446688
 21
7.45875878433236
  0
LINE
  5
44D
100
AcDbEntity
  8
exterior
  6
ByLayer
 62
  256
370
   -1
100
AcDbLine
 10
27.84006779446688
 20
7.45875878433236
 11
27.84006779446688
 21
7.331198342610037
  0
LINE
  5
44E
100
AcDbEntity
  8
exterior
  6
ByLayer
 62
  256
370
   -1
100
AcDbLine
 10
27.84006779446688
 20
4.314561276513416
 11
27.90528839510412
 21
4.314561276513416
  0
LINE
  5
44F
100
AcDbEntity
  8
Station Marks
  6
ByLayer
 62
    5
370
   -1
100
AcDbLine
 10
39.70348168684151
 20
50.6954324712259
 11
39.74301391287202
 21
48.68256970123593
  0
LINE
  5
450
100
AcDbEntity
  8
Station Marks
  6
ByLayer
 62
    5
370
   -1
100
AcDbLine
 10
38.71681641486177
 20
49.66923497321565
 11
40.72967918485176
 21
49.70876719924615
  0
CIRCLE
  5
451
100
AcDbEntity
  8
Station Marks
  6
ByLayer
 62
    5
370
   -1
100
AcDbCircle
 10
39.72324779985678
 20
49.68900108623092
 40
0.7744705207443496
  0
CIRCLE
  5
452
100
AcDbEntity
  8
Station Marks
  6
ByLayer
 62
  256
370
   -1
100
AcDbCircle
 10
39.72325017388499
 20
49.68899858428946
 40
0.7744705207443496
  0
LINE
  5
453
100
AcDbEntity
  8
Station Marks
  6
ByLayer
 62
  256
370
   -1
100
AcDbLine
 10
38.71681879085691
 20
49.66923236986776
 11
40.72968155688181
 21
49.70876479883606
  0
LINE
  5
454
100
AcDbEntity
  8
Station Marks
  6
ByLayer
 62
  256
370
   -1
100
AcDbLine
 10
39.70348395936963
 20
50.6954299674112
 11
39.74301638836911
 21
48.68256720129261
  0
LINE
  5
455
100
AcDbEntity
  8
0
  6
ByLayer
 62
  256
370
   -1
100
AcDbLine
 10
84.42138617909714
 20
49.68899858435191
 11
84.42138617909714
 21
-130.3109988681266
  0
LINE
  5
456
100
AcDbEntity
  8
0
  6
ByLayer
 62
  256
370
   -1
100
AcDbLine
 10
84.42138617909714
 20
49.68888020860599
 11
-171.5786138209029
 21
49.68888020860599
  0
LINE
  5
457
100
AcDbEntity
  8
0
  6
ByLayer
 62
  256
370
   -1
100
AcDbLine
 10
84.42138617909714
 20
-130.3109988681266
 11
-171.5786138209029
 21
-130.3109988681266
  0
LINE
  5
458
100
AcDbEntity
  8
0
  6
ByLayer
 62
  256
370
   -1
100
AcDbLine
 10
-171.5786138209029
 20
49.68899858435191
 11
-171.5786138209029
 21
-130.3109988681266
  0
MTEXT
  5
459
100
AcDbEntity
  8
0
  6
ByLayer
 62
  256
370
   -1
100
AcDbMText
 10
39.9892345975206
 20
46.66546115724295
 30
0
 40
2
 41
41.61111068710758
 71
    1
 72
    1
  1
Drawing unit: -\P\PCopyright Stephen Brabin 2019\P\Pwww.giza-pyramids.com
  7

210
0
220
0
230
1
 50
0
 73
    2
 44
1
  0
ENDSEC
  0
SECTION
  2
OBJECTS
  0
DICTIONARY
  5
C
330
0
100
AcDbDictionary
281
    1
  3
ACAD_GROUP
350
D
  0
DICTIONARY
  5
D
330
C
100
AcDbDictionary
281
    1
  0
ENDSEC
  0
EOF
